  0
SECTION
  2
HEADER
  9
$ACADVER
  1
AC1009
  9
$INSBASE
 10
0.0
 20
0.0
 30
0.0
  9
$EXTMIN
 10
818.093691
 20
256.354147
 30
-2050.0
  9
$EXTMAX
 10
2148.093691
 20
711.354147
 30
50.0
  9
$LIMMIN
 10
0.0
 20
0.0
  9
$LIMMAX
 10
1500.0
 20
1500.0
  9
$ORTHOMODE
 70
     0
  9
$REGENMODE
 70
     1
  9
$FILLMODE
 70
     1
  9
$QTEXTMODE
 70
     0
  9
$MIRRTEXT
 70
     1
  9
$DRAGMODE
 70
     2
  9
$LTSCALE
 40
1.0
  9
$OSMODE
 70
    41
  9
$ATTMODE
 70
     1
  9
$TEXTSIZE
 40
2.5
  9
$TRACEWID
 40
1.0
  9
$TEXTSTYLE
  7
STANDARD
  9
$CLAYER
  8
0
  9
$CELTYPE
  6
BYLAYER
  9
$CECOLOR
 62
   256
  9
$DIMSCALE
 40
1.0
  9
$DIMASZ
 40
2.5
  9
$DIMEXO
 40
0.625
  9
$DIMDLI
 40
3.75
  9
$DIMRND
 40
0.0
  9
$DIMDLE
 40
0.0
  9
$DIMEXE
 40
1.25
  9
$DIMTP
 40
0.0
  9
$DIMTM
 40
0.0
  9
$DIMTXT
 40
2.5
  9
$DIMCEN
 40
2.5
  9
$DIMTSZ
 40
0.0
  9
$DIMTOL
 70
     0
  9
$DIMLIM
 70
     0
  9
$DIMTIH
 70
     1
  9
$DIMTOH
 70
     0
  9
$DIMSE1
 70
     0
  9
$DIMSE2
 70
     0
  9
$DIMTAD
 70
     1
  9
$DIMZIN
 70
     8
  9
$DIMBLK
  1

  9
$DIMASO
 70
     1
  9
$DIMSHO
 70
     1
  9
$DIMPOST
  1

  9
$DIMAPOST
  1

  9
$DIMALT
 70
     0
  9
$DIMALTD
 70
     2
  9
$DIMALTF
 40
0.0394
  9
$DIMLFAC
 40
1.0
  9
$DIMTOFL
 70
     1
  9
$DIMTVP
 40
1.0
  9
$DIMTIX
 70
     0
  9
$DIMSOXD
 70
     0
  9
$DIMSAH
 70
     0
  9
$DIMBLK1
  1

  9
$DIMBLK2
  1

  9
$DIMSTYLE
  2
ISO-25
  9
$DIMCLRD
 70
     0
  9
$DIMCLRE
 70
     0
  9
$DIMCLRT
 70
     0
  9
$DIMTFAC
 40
1.0
  9
$DIMGAP
 40
0.625
  9
$LUNITS
 70
     2
  9
$LUPREC
 70
     0
  9
$AXISMODE
 70
     0
  9
$AXISUNIT
 10
0.0
 20
0.0
  9
$SKETCHINC
 40
1.0
  9
$FILLETRAD
 40
0.0
  9
$AUNITS
 70
     0
  9
$AUPREC
 70
     0
  9
$MENU
  1
acad
  9
$ELEVATION
 40
0.0
  9
$PELEVATION
 40
0.0
  9
$THICKNESS
 40
0.0
  9
$LIMCHECK
 70
     0
  9
$BLIPMODE
 70
     1
  9
$CHAMFERA
 40
10.0
  9
$CHAMFERB
 40
10.0
  9
$SKPOLY
 70
     0
  9
$TDCREATE
 40
2451070.979279514
  9
$TDUPDATE
 40
2451175.003449062
  9
$TDINDWG
 40
0.0660766204
  9
$TDUSRTIMER
 40
0.0660650347
  9
$USRTIMER
 70
     1
  9
$ANGBASE
 50
0.0
  9
$ANGDIR
 70
     0
  9
$PDMODE
 70
    35
  9
$PDSIZE
 40
-3.0
  9
$PLINEWID
 40
0.0
  9
$COORDS
 70
     1
  9
$SPLFRAME
 70
     0
  9
$SPLINETYPE
 70
     6
  9
$SPLINESEGS
 70
     8
  9
$ATTDIA
 70
     0
  9
$ATTREQ
 70
     1
  9
$HANDLING
 70
     1
  9
$HANDSEED
  5
BCD
  9
$SURFTAB1
 70
    14
  9
$SURFTAB2
 70
     6
  9
$SURFTYPE
 70
     6
  9
$SURFU
 70
     6
  9
$SURFV
 70
     6
  9
$UCSNAME
  2

  9
$UCSORG
 10
0.0
 20
0.0
 30
0.0
  9
$UCSXDIR
 10
1.0
 20
0.0
 30
0.0
  9
$UCSYDIR
 10
0.0
 20
1.0
 30
0.0
  9
$PUCSNAME
  2

  9
$PUCSORG
 10
0.0
 20
0.0
 30
0.0
  9
$PUCSXDIR
 10
1.0
 20
0.0
 30
0.0
  9
$PUCSYDIR
 10
0.0
 20
1.0
 30
0.0
  9
$USERI1
 70
     0
  9
$USERI2
 70
     0
  9
$USERI3
 70
     0
  9
$USERI4
 70
     0
  9
$USERI5
 70
     0
  9
$USERR1
 40
0.0
  9
$USERR2
 40
0.0
  9
$USERR3
 40
0.0
  9
$USERR4
 40
0.0
  9
$USERR5
 40
0.0
  9
$WORLDVIEW
 70
     1
  9
$SHADEDGE
 70
     3
  9
$SHADEDIF
 70
    70
  9
$TILEMODE
 70
     1
  9
$MAXACTVP
 70
    16
  9
$PINSBASE
 10
0.0
 20
0.0
 30
0.0
  9
$PLIMCHECK
 70
     0
  9
$PEXTMIN
 10
1.000000E+20
 20
1.000000E+20
 30
1.000000E+20
  9
$PEXTMAX
 10
-1.000000E+20
 20
-1.000000E+20
 30
-1.000000E+20
  9
$PLIMMIN
 10
0.0
 20
0.0
  9
$PLIMMAX
 10
420.0
 20
297.0
  9
$UNITMODE
 70
     0
  9
$VISRETAIN
 70
     0
  9
$PLINEGEN
 70
     0
  9
$PSLTSCALE
 70
     1
  9
$TREEDEPTH
 70
  3020
  9
$DWGCODEPAGE
  3
dos850
  0
ENDSEC
  0
SECTION
  2
TABLES
  0
TABLE
  2
VPORT
 70
     1
  0
VPORT
  2
*ACTIVE
 70
     0
 10
0.0
 20
0.0
 11
1.0
 21
1.0
 12
1733.726104
 22
-13.493489
 13
0.0
 23
0.0
 14
10.0
 24
10.0
 15
10.0
 25
10.0
 16
-1.0
 26
-1.0
 36
1.0
 17
0.0
 27
0.0
 37
0.0
 40
2714.851132
 41
1.357349
 42
50.0
 43
0.0
 44
0.0
 50
0.0
 51
0.0
 71
     0
 72
   100
 73
     1
 74
     1
 75
     0
 76
     0
 77
     0
 78
     0
  0
ENDTAB
  0
TABLE
  2
LTYPE
 70
     1
  0
LTYPE
  2
CONTINUOUS
 70
    64
  3
Solid line
 72
    65
 73
     0
 40
0.0
  0
ENDTAB
  0
TABLE
  2
LAYER
 70
     3
  0
LAYER
  2
0
 70
    64
 62
     7
  6
CONTINUOUS
  0
LAYER
  2
I-UNIT
 70
    64
 62
   253
  6
CONTINUOUS
  0
LAYER
  2
I-STAND
 70
    64
 62
    30
  6
CONTINUOUS
  0
ENDTAB
  0
TABLE
  2
STYLE
 70
     1
  0
STYLE
  2
STANDARD
 70
    64
 40
0.0
 41
1.0
 50
0.0
 71
     0
 42
2.5
  3
ISOCP
  4

  0
ENDTAB
  0
TABLE
  2
VIEW
 70
     0
  0
ENDTAB
  0
TABLE
  2
UCS
 70
     0
  0
ENDTAB
  0
TABLE
  2
APPID
 70
     1
  0
APPID
  2
ACAD
 70
     0
  0
ENDTAB
  0
TABLE
  2
DIMSTYLE
 70
     2
  0
DIMSTYLE
  2
STANDARD
 70
     0
  3

  4

  5

  6

  7

 40
1.0
 41
0.18
 42
0.0625
 43
0.38
 44
0.18
 45
0.0
 46
0.0
 47
0.0
 48
0.0
140
0.18
141
0.09
142
0.0
143
25.4
144
1.0
145
0.0
146
1.0
147
0.09
 71
     0
 72
     0
 73
     1
 74
     1
 75
     0
 76
     0
 77
     0
 78
     0
170
     0
171
     2
172
     0
173
     0
174
     0
175
     0
176
     0
177
     0
178
     0
  0
DIMSTYLE
  2
ISO-25
 70
     0
  3

  4

  5

  6

  7

 40
1.0
 41
2.5
 42
0.625
 43
3.75
 44
1.25
 45
0.0
 46
0.0
 47
0.0
 48
0.0
140
2.5
141
2.5
142
0.0
143
0.0394
144
1.0
145
1.0
146
1.0
147
0.625
 71
     0
 72
     0
 73
     1
 74
     0
 75
     0
 76
     0
 77
     1
 78
     8
170
     0
171
     2
172
     1
173
     0
174
     0
175
     0
176
     0
177
     0
178
     0
  0
ENDTAB
  0
ENDSEC
  0
SECTION
  2
BLOCKS
  0
ENDSEC
  0
SECTION
  2
ENTITIES
  0
VIEWPORT
  8
0
  5
22
 67
     1
 68
     1
 10
261.517699
 20
148.5
 30
0.0
 40
523.035398
 41
297.0
 69
     1
1001
ACAD
1000
MVIEW
1002
{
1070
    16
1010
0.0
1020
0.0
1030
0.0
1010
0.0
1020
0.0
1030
1.0
1040
0.0
1040
297.0
1040
261.517699
1040
148.5
1040
50.0
1040
0.0
1040
0.0
1070
     0
1070
   100
1070
     1
1070
     1
1070
     0
1070
     0
1070
     0
1070
     0
1040
0.0
1040
0.0
1040
0.0
1040
1.0
1040
1.0
1040
10.0
1040
10.0
1070
     0
1002
{
1002
}
1002
}
  0
POLYLINE
  8
I-UNIT
  5
54
 66
     1
 10
0.0
 20
0.0
 30
50.0
 70
     1
  0
VERTEX
  8
I-UNIT
  5
55
 10
1673.093691
 20
283.854147
 30
50.0
  0
VERTEX
  8
I-UNIT
  5
56
 10
1673.093691
 20
308.854147
 30
50.0
  0
VERTEX
  8
I-UNIT
  5
57
 10
1683.093691
 20
308.854147
 30
50.0
  0
VERTEX
  8
I-UNIT
  5
58
 10
1683.093691
 20
283.854147
 30
50.0
  0
SEQEND
  8
I-UNIT
  5
59
  0
POLYLINE
  8
I-UNIT
  5
5A
 66
     1
 10
0.0
 20
0.0
 30
50.0
 70
     1
  0
VERTEX
  8
I-UNIT
  5
5B
 10
1693.093691
 20
283.854147
 30
50.0
  0
VERTEX
  8
I-UNIT
  5
5C
 10
1693.093691
 20
308.854147
 30
50.0
  0
VERTEX
  8
I-UNIT
  5
5D
 10
1703.093691
 20
308.854147
 30
50.0
  0
VERTEX
  8
I-UNIT
  5
5E
 10
1703.093691
 20
283.854147
 30
50.0
  0
SEQEND
  8
I-UNIT
  5
5F
  0
POLYLINE
  8
I-UNIT
  5
60
 66
     1
 10
0.0
 20
0.0
 30
50.0
 70
     1
  0
VERTEX
  8
I-UNIT
  5
61
 10
1673.093691
 20
658.854147
 30
50.0
  0
VERTEX
  8
I-UNIT
  5
62
 10
1673.093691
 20
683.854147
 30
50.0
  0
VERTEX
  8
I-UNIT
  5
63
 10
1683.093691
 20
683.854147
 30
50.0
  0
VERTEX
  8
I-UNIT
  5
64
 10
1683.093691
 20
658.854147
 30
50.0
  0
SEQEND
  8
I-UNIT
  5
65
  0
POLYLINE
  8
I-UNIT
  5
66
 66
     1
 10
0.0
 20
0.0
 30
50.0
 70
     1
  0
VERTEX
  8
I-UNIT
  5
67
 10
1693.093691
 20
658.854147
 30
50.0
  0
VERTEX
  8
I-UNIT
  5
68
 10
1693.093691
 20
683.854147
 30
50.0
  0
VERTEX
  8
I-UNIT
  5
69
 10
1703.093691
 20
683.854147
 30
50.0
  0
VERTEX
  8
I-UNIT
  5
6A
 10
1703.093691
 20
658.854147
 30
50.0
  0
SEQEND
  8
I-UNIT
  5
6B
  0
POLYLINE
  8
I-UNIT
  5
6C
 66
     1
 10
0.0
 20
0.0
 30
50.0
 70
     1
  0
VERTEX
  8
I-UNIT
  5
6D
 10
843.093691
 20
658.854147
 30
50.0
  0
VERTEX
  8
I-UNIT
  5
6E
 10
843.093691
 20
683.854147
 30
50.0
  0
VERTEX
  8
I-UNIT
  5
6F
 10
853.093691
 20
683.854147
 30
50.0
  0
VERTEX
  8
I-UNIT
  5
70
 10
853.093691
 20
658.854147
 30
50.0
  0
SEQEND
  8
I-UNIT
  5
71
  0
POLYLINE
  8
I-UNIT
  5
72
 66
     1
 10
0.0
 20
0.0
 30
50.0
 70
     1
  0
VERTEX
  8
I-UNIT
  5
73
 10
863.093691
 20
658.854147
 30
50.0
  0
VERTEX
  8
I-UNIT
  5
74
 10
863.093691
 20
683.854147
 30
50.0
  0
VERTEX
  8
I-UNIT
  5
75
 10
873.093691
 20
683.854147
 30
50.0
  0
VERTEX
  8
I-UNIT
  5
76
 10
873.093691
 20
658.854147
 30
50.0
  0
SEQEND
  8
I-UNIT
  5
77
  0
POLYLINE
  8
I-UNIT
  5
78
 66
     1
 10
0.0
 20
0.0
 30
50.0
 70
     1
  0
VERTEX
  8
I-UNIT
  5
79
 10
843.093691
 20
283.854147
 30
50.0
  0
VERTEX
  8
I-UNIT
  5
7A
 10
843.093691
 20
308.854147
 30
50.0
  0
VERTEX
  8
I-UNIT
  5
7B
 10
853.093691
 20
308.854147
 30
50.0
  0
VERTEX
  8
I-UNIT
  5
7C
 10
853.093691
 20
283.854147
 30
50.0
  0
SEQEND
  8
I-UNIT
  5
7D
  0
POLYLINE
  8
I-UNIT
  5
7E
 66
     1
 10
0.0
 20
0.0
 30
50.0
 70
     1
  0
VERTEX
  8
I-UNIT
  5
7F
 10
863.093691
 20
283.854147
 30
50.0
  0
VERTEX
  8
I-UNIT
  5
80
 10
863.093691
 20
308.854147
 30
50.0
  0
VERTEX
  8
I-UNIT
  5
81
 10
873.093691
 20
308.854147
 30
50.0
  0
VERTEX
  8
I-UNIT
  5
82
 10
873.093691
 20
283.854147
 30
50.0
  0
SEQEND
  8
I-UNIT
  5
83
  0
POLYLINE
  8
I-UNIT
  5
93
 66
     1
 10
0.0
 20
0.0
 30
-683.854147
 70
     1
210
0.0
220
-1.0
230
0.0
  0
VERTEX
  8
I-UNIT
  5
94
 10
853.093691
 20
-10.0
 30
-683.854147
  0
VERTEX
  8
I-UNIT
  5
95
 10
853.093691
 20
0.0
 30
-683.854147
  0
VERTEX
  8
I-UNIT
  5
96
 10
863.093691
 20
0.0
 30
-683.854147
  0
VERTEX
  8
I-UNIT
  5
97
 10
863.093691
 20
-10.0
 30
-683.854147
  0
SEQEND
  8
I-UNIT
  5
98
  0
LINE
  8
I-UNIT
  5
99
 10
863.093691
 20
683.854147
 30
0.0
 11
863.093691
 21
283.854147
 31
0.0
210
0.0
220
-1.0
230
0.0
  0
POLYLINE
  8
I-UNIT
  5
9A
 66
     1
 10
0.0
 20
0.0
 30
0.0
 70
    48
 71
     2
 72
     4
  0
VERTEX
  8
I-UNIT
  5
9B
 10
853.093691
 20
683.854147
 30
0.0
 70
    64
  0
VERTEX
  8
I-UNIT
  5
9C
 10
863.093691
 20
683.854147
 30
0.0
 70
    64
  0
VERTEX
  8
I-UNIT
  5
9D
 10
863.093691
 20
683.854147
 30
-10.0
 70
    64
  0
VERTEX
  8
I-UNIT
  5
9E
 10
853.093691
 20
683.854147
 30
-10.0
 70
    64
  0
VERTEX
  8
I-UNIT
  5
9F
 10
853.093691
 20
283.854147
 30
0.0
 70
    64
  0
VERTEX
  8
I-UNIT
  5
A0
 10
863.093691
 20
283.854147
 30
0.0
 70
    64
  0
VERTEX
  8
I-UNIT
  5
A1
 10
863.093691
 20
283.854147
 30
-10.0
 70
    64
  0
VERTEX
  8
I-UNIT
  5
A2
 10
853.093691
 20
283.854147
 30
-10.0
 70
    64
  0
SEQEND
  8
I-UNIT
  5
A3
  0
POLYLINE
  8
I-UNIT
  5
A4
 66
     1
 10
0.0
 20
0.0
 30
0.0
 70
    48
 71
     2
 72
     4
  0
VERTEX
  8
I-UNIT
  5
A5
 10
853.093691
 20
683.854147
 30
-166.666667
 70
    64
  0
VERTEX
  8
I-UNIT
  5
A6
 10
863.093691
 20
683.854147
 30
-166.666667
 70
    64
  0
VERTEX
  8
I-UNIT
  5
A7
 10
863.093691
 20
683.854147
 30
-176.666667
 70
    64
  0
VERTEX
  8
I-UNIT
  5
A8
 10
853.093691
 20
683.854147
 30
-176.666667
 70
    64
  0
VERTEX
  8
I-UNIT
  5
A9
 10
853.093691
 20
283.854147
 30
-166.666667
 70
    64
  0
VERTEX
  8
I-UNIT
  5
AA
 10
863.093691
 20
283.854147
 30
-166.666667
 70
    64
  0
VERTEX
  8
I-UNIT
  5
AB
 10
863.093691
 20
283.854147
 30
-176.666667
 70
    64
  0
VERTEX
  8
I-UNIT
  5
AC
 10
853.093691
 20
283.854147
 30
-176.666667
 70
    64
  0
SEQEND
  8
I-UNIT
  5
AD
  0
POLYLINE
  8
I-UNIT
  5
AE
 66
     1
 10
0.0
 20
0.0
 30
0.0
 70
    48
 71
     2
 72
     4
  0
VERTEX
  8
I-UNIT
  5
AF
 10
853.093691
 20
683.854147
 30
-333.333333
 70
    64
  0
VERTEX
  8
I-UNIT
  5
B0
 10
863.093691
 20
683.854147
 30
-333.333333
 70
    64
  0
VERTEX
  8
I-UNIT
  5
B1
 10
863.093691
 20
683.854147
 30
-343.333333
 70
    64
  0
VERTEX
  8
I-UNIT
  5
B2
 10
853.093691
 20
683.854147
 30
-343.333333
 70
    64
  0
VERTEX
  8
I-UNIT
  5
B3
 10
853.093691
 20
283.854147
 30
-333.333333
 70
    64
  0
VERTEX
  8
I-UNIT
  5
B4
 10
863.093691
 20
283.854147
 30
-333.333333
 70
    64
  0
VERTEX
  8
I-UNIT
  5
B5
 10
863.093691
 20
283.854147
 30
-343.333333
 70
    64
  0
VERTEX
  8
I-UNIT
  5
B6
 10
853.093691
 20
283.854147
 30
-343.333333
 70
    64
  0
SEQEND
  8
I-UNIT
  5
B7
  0
POLYLINE
  8
I-UNIT
  5
B8
 66
     1
 10
0.0
 20
0.0
 30
0.0
 70
    48
 71
     2
 72
     4
  0
VERTEX
  8
I-UNIT
  5
B9
 10
853.093691
 20
683.854147
 30
-666.666667
 70
    64
  0
VERTEX
  8
I-UNIT
  5
BA
 10
863.093691
 20
683.854147
 30
-666.666667
 70
    64
  0
VERTEX
  8
I-UNIT
  5
BB
 10
863.093691
 20
683.854147
 30
-676.666667
 70
    64
  0
VERTEX
  8
I-UNIT
  5
BC
 10
853.093691
 20
683.854147
 30
-676.666667
 70
    64
  0
VERTEX
  8
I-UNIT
  5
BD
 10
853.093691
 20
283.854147
 30
-666.666667
 70
    64
  0
VERTEX
  8
I-UNIT
  5
BE
 10
863.093691
 20
283.854147
 30
-666.666667
 70
    64
  0
VERTEX
  8
I-UNIT
  5
BF
 10
863.093691
 20
283.854147
 30
-676.666667
 70
    64
  0
VERTEX
  8
I-UNIT
  5
C0
 10
853.093691
 20
283.854147
 30
-676.666667
 70
    64
  0
SEQEND
  8
I-UNIT
  5
C1
  0
POLYLINE
  8
I-UNIT
  5
C2
 66
     1
 10
0.0
 20
0.0
 30
0.0
 70
    48
 71
     2
 72
     4
  0
VERTEX
  8
I-UNIT
  5
C3
 10
853.093691
 20
683.854147
 30
-500.0
 70
    64
  0
VERTEX
  8
I-UNIT
  5
C4
 10
863.093691
 20
683.854147
 30
-500.0
 70
    64
  0
VERTEX
  8
I-UNIT
  5
C5
 10
863.093691
 20
683.854147
 30
-510.0
 70
    64
  0
VERTEX
  8
I-UNIT
  5
C6
 10
853.093691
 20
683.854147
 30
-510.0
 70
    64
  0
VERTEX
  8
I-UNIT
  5
C7
 10
853.093691
 20
283.854147
 30
-500.0
 70
    64
  0
VERTEX
  8
I-UNIT
  5
C8
 10
863.093691
 20
283.854147
 30
-500.0
 70
    64
  0
VERTEX
  8
I-UNIT
  5
C9
 10
863.093691
 20
283.854147
 30
-510.0
 70
    64
  0
VERTEX
  8
I-UNIT
  5
CA
 10
853.093691
 20
283.854147
 30
-510.0
 70
    64
  0
SEQEND
  8
I-UNIT
  5
CB
  0
POLYLINE
  8
I-UNIT
  5
CC
 66
     1
 10
0.0
 20
0.0
 30
0.0
 70
    48
 71
     2
 72
     4
  0
VERTEX
  8
I-UNIT
  5
CD
 10
853.093691
 20
683.854147
 30
-1000.0
 70
    64
  0
VERTEX
  8
I-UNIT
  5
CE
 10
863.093691
 20
683.854147
 30
-1000.0
 70
    64
  0
VERTEX
  8
I-UNIT
  5
CF
 10
863.093691
 20
683.854147
 30
-1010.0
 70
    64
  0
VERTEX
  8
I-UNIT
  5
D0
 10
853.093691
 20
683.854147
 30
-1010.0
 70
    64
  0
VERTEX
  8
I-UNIT
  5
D1
 10
853.093691
 20
283.854147
 30
-1000.0
 70
    64
  0
VERTEX
  8
I-UNIT
  5
D2
 10
863.093691
 20
283.854147
 30
-1000.0
 70
    64
  0
VERTEX
  8
I-UNIT
  5
D3
 10
863.093691
 20
283.854147
 30
-1010.0
 70
    64
  0
VERTEX
  8
I-UNIT
  5
D4
 10
853.093691
 20
283.854147
 30
-1010.0
 70
    64
  0
SEQEND
  8
I-UNIT
  5
D5
  0
POLYLINE
  8
I-UNIT
  5
D6
 66
     1
 10
0.0
 20
0.0
 30
0.0
 70
    48
 71
     2
 72
     4
  0
VERTEX
  8
I-UNIT
  5
D7
 10
853.093691
 20
683.854147
 30
-833.333333
 70
    64
  0
VERTEX
  8
I-UNIT
  5
D8
 10
863.093691
 20
683.854147
 30
-833.333333
 70
    64
  0
VERTEX
  8
I-UNIT
  5
D9
 10
863.093691
 20
683.854147
 30
-843.333333
 70
    64
  0
VERTEX
  8
I-UNIT
  5
DA
 10
853.093691
 20
683.854147
 30
-843.333333
 70
    64
  0
VERTEX
  8
I-UNIT
  5
DB
 10
853.093691
 20
283.854147
 30
-833.333333
 70
    64
  0
VERTEX
  8
I-UNIT
  5
DC
 10
863.093691
 20
283.854147
 30
-833.333333
 70
    64
  0
VERTEX
  8
I-UNIT
  5
DD
 10
863.093691
 20
283.854147
 30
-843.333333
 70
    64
  0
VERTEX
  8
I-UNIT
  5
DE
 10
853.093691
 20
283.854147
 30
-843.333333
 70
    64
  0
SEQEND
  8
I-UNIT
  5
DF
  0
POLYLINE
  8
I-UNIT
  5
E0
 66
     1
 10
0.0
 20
0.0
 30
0.0
 70
    48
 71
     2
 72
     4
  0
VERTEX
  8
I-UNIT
  5
E1
 10
853.093691
 20
683.854147
 30
-1333.333333
 70
    64
  0
VERTEX
  8
I-UNIT
  5
E2
 10
863.093691
 20
683.854147
 30
-1333.333333
 70
    64
  0
VERTEX
  8
I-UNIT
  5
E3
 10
863.093691
 20
683.854147
 30
-1343.333333
 70
    64
  0
VERTEX
  8
I-UNIT
  5
E4
 10
853.093691
 20
683.854147
 30
-1343.333333
 70
    64
  0
VERTEX
  8
I-UNIT
  5
E5
 10
853.093691
 20
283.854147
 30
-1333.333333
 70
    64
  0
VERTEX
  8
I-UNIT
  5
E6
 10
863.093691
 20
283.854147
 30
-1333.333333
 70
    64
  0
VERTEX
  8
I-UNIT
  5
E7
 10
863.093691
 20
283.854147
 30
-1343.333333
 70
    64
  0
VERTEX
  8
I-UNIT
  5
E8
 10
853.093691
 20
283.854147
 30
-1343.333333
 70
    64
  0
SEQEND
  8
I-UNIT
  5
E9
  0
POLYLINE
  8
I-UNIT
  5
EA
 66
     1
 10
0.0
 20
0.0
 30
0.0
 70
    48
 71
     2
 72
     4
  0
VERTEX
  8
I-UNIT
  5
EB
 10
853.093691
 20
683.854147
 30
-1166.666667
 70
    64
  0
VERTEX
  8
I-UNIT
  5
EC
 10
863.093691
 20
683.854147
 30
-1166.666667
 70
    64
  0
VERTEX
  8
I-UNIT
  5
ED
 10
863.093691
 20
683.854147
 30
-1176.666667
 70
    64
  0
VERTEX
  8
I-UNIT
  5
EE
 10
853.093691
 20
683.854147
 30
-1176.666667
 70
    64
  0
VERTEX
  8
I-UNIT
  5
EF
 10
853.093691
 20
283.854147
 30
-1166.666667
 70
    64
  0
VERTEX
  8
I-UNIT
  5
F0
 10
863.093691
 20
283.854147
 30
-1166.666667
 70
    64
  0
VERTEX
  8
I-UNIT
  5
F1
 10
863.093691
 20
283.854147
 30
-1176.666667
 70
    64
  0
VERTEX
  8
I-UNIT
  5
F2
 10
853.093691
 20
283.854147
 30
-1176.666667
 70
    64
  0
SEQEND
  8
I-UNIT
  5
F3
  0
POLYLINE
  8
I-UNIT
  5
F4
 66
     1
 10
0.0
 20
0.0
 30
0.0
 70
    48
 71
     2
 72
     4
  0
VERTEX
  8
I-UNIT
  5
F5
 10
853.093691
 20
683.854147
 30
-1666.666667
 70
    64
  0
VERTEX
  8
I-UNIT
  5
F6
 10
863.093691
 20
683.854147
 30
-1666.666667
 70
    64
  0
VERTEX
  8
I-UNIT
  5
F7
 10
863.093691
 20
683.854147
 30
-1676.666667
 70
    64
  0
VERTEX
  8
I-UNIT
  5
F8
 10
853.093691
 20
683.854147
 30
-1676.666667
 70
    64
  0
VERTEX
  8
I-UNIT
  5
F9
 10
853.093691
 20
283.854147
 30
-1666.666667
 70
    64
  0
VERTEX
  8
I-UNIT
  5
FA
 10
863.093691
 20
283.854147
 30
-1666.666667
 70
    64
  0
VERTEX
  8
I-UNIT
  5
FB
 10
863.093691
 20
283.854147
 30
-1676.666667
 70
    64
  0
VERTEX
  8
I-UNIT
  5
FC
 10
853.093691
 20
283.854147
 30
-1676.666667
 70
    64
  0
SEQEND
  8
I-UNIT
  5
FD
  0
POLYLINE
  8
I-UNIT
  5
FE
 66
     1
 10
0.0
 20
0.0
 30
0.0
 70
    48
 71
     2
 72
     4
  0
VERTEX
  8
I-UNIT
  5
FF
 10
853.093691
 20
683.854147
 30
-1500.0
 70
    64
  0
VERTEX
  8
I-UNIT
  5
100
 10
863.093691
 20
683.854147
 30
-1500.0
 70
    64
  0
VERTEX
  8
I-UNIT
  5
101
 10
863.093691
 20
683.854147
 30
-1510.0
 70
    64
  0
VERTEX
  8
I-UNIT
  5
102
 10
853.093691
 20
683.854147
 30
-1510.0
 70
    64
  0
VERTEX
  8
I-UNIT
  5
103
 10
853.093691
 20
283.854147
 30
-1500.0
 70
    64
  0
VERTEX
  8
I-UNIT
  5
104
 10
863.093691
 20
283.854147
 30
-1500.0
 70
    64
  0
VERTEX
  8
I-UNIT
  5
105
 10
863.093691
 20
283.854147
 30
-1510.0
 70
    64
  0
VERTEX
  8
I-UNIT
  5
106
 10
853.093691
 20
283.854147
 30
-1510.0
 70
    64
  0
SEQEND
  8
I-UNIT
  5
107
  0
POLYLINE
  8
I-UNIT
  5
112
 66
     1
 10
0.0
 20
0.0
 30
0.0
 70
    48
 71
     2
 72
     4
  0
VERTEX
  8
I-UNIT
  5
113
 10
853.093691
 20
683.854147
 30
-1833.333333
 70
    64
  0
VERTEX
  8
I-UNIT
  5
114
 10
863.093691
 20
683.854147
 30
-1833.333333
 70
    64
  0
VERTEX
  8
I-UNIT
  5
115
 10
863.093691
 20
683.854147
 30
-1843.333333
 70
    64
  0
VERTEX
  8
I-UNIT
  5
116
 10
853.093691
 20
683.854147
 30
-1843.333333
 70
    64
  0
VERTEX
  8
I-UNIT
  5
117
 10
853.093691
 20
283.854147
 30
-1833.333333
 70
    64
  0
VERTEX
  8
I-UNIT
  5
118
 10
863.093691
 20
283.854147
 30
-1833.333333
 70
    64
  0
VERTEX
  8
I-UNIT
  5
119
 10
863.093691
 20
283.854147
 30
-1843.333333
 70
    64
  0
VERTEX
  8
I-UNIT
  5
11A
 10
853.093691
 20
283.854147
 30
-1843.333333
 70
    64
  0
SEQEND
  8
I-UNIT
  5
11B
  0
POLYLINE
  8
I-UNIT
  5
11D
 66
     1
 10
0.0
 20
0.0
 30
0.0
 70
    48
 71
     2
 72
     4
  0
VERTEX
  8
I-UNIT
  5
11E
 10
1683.093691
 20
683.854147
 30
-1833.333333
 70
    64
  0
VERTEX
  8
I-UNIT
  5
11F
 10
1693.093691
 20
683.854147
 30
-1833.333333
 70
    64
  0
VERTEX
  8
I-UNIT
  5
120
 10
1693.093691
 20
683.854147
 30
-1843.333333
 70
    64
  0
VERTEX
  8
I-UNIT
  5
121
 10
1683.093691
 20
683.854147
 30
-1843.333333
 70
    64
  0
VERTEX
  8
I-UNIT
  5
122
 10
1683.093691
 20
283.854147
 30
-1833.333333
 70
    64
  0
VERTEX
  8
I-UNIT
  5
123
 10
1693.093691
 20
283.854147
 30
-1833.333333
 70
    64
  0
VERTEX
  8
I-UNIT
  5
124
 10
1693.093691
 20
283.854147
 30
-1843.333333
 70
    64
  0
VERTEX
  8
I-UNIT
  5
125
 10
1683.093691
 20
283.854147
 30
-1843.333333
 70
    64
  0
SEQEND
  8
I-UNIT
  5
126
  0
POLYLINE
  8
I-UNIT
  5
131
 66
     1
 10
0.0
 20
0.0
 30
0.0
 70
    48
 71
     2
 72
     4
  0
VERTEX
  8
I-UNIT
  5
132
 10
1683.093691
 20
683.854147
 30
-1666.666667
 70
    64
  0
VERTEX
  8
I-UNIT
  5
133
 10
1693.093691
 20
683.854147
 30
-1666.666667
 70
    64
  0
VERTEX
  8
I-UNIT
  5
134
 10
1693.093691
 20
683.854147
 30
-1676.666667
 70
    64
  0
VERTEX
  8
I-UNIT
  5
135
 10
1683.093691
 20
683.854147
 30
-1676.666667
 70
    64
  0
VERTEX
  8
I-UNIT
  5
136
 10
1683.093691
 20
283.854147
 30
-1666.666667
 70
    64
  0
VERTEX
  8
I-UNIT
  5
137
 10
1693.093691
 20
283.854147
 30
-1666.666667
 70
    64
  0
VERTEX
  8
I-UNIT
  5
138
 10
1693.093691
 20
283.854147
 30
-1676.666667
 70
    64
  0
VERTEX
  8
I-UNIT
  5
139
 10
1683.093691
 20
283.854147
 30
-1676.666667
 70
    64
  0
SEQEND
  8
I-UNIT
  5
13A
  0
POLYLINE
  8
I-UNIT
  5
13B
 66
     1
 10
0.0
 20
0.0
 30
0.0
 70
    48
 71
     2
 72
     4
  0
VERTEX
  8
I-UNIT
  5
13C
 10
1683.093691
 20
683.854147
 30
-1500.0
 70
    64
  0
VERTEX
  8
I-UNIT
  5
13D
 10
1693.093691
 20
683.854147
 30
-1500.0
 70
    64
  0
VERTEX
  8
I-UNIT
  5
13E
 10
1693.093691
 20
683.854147
 30
-1510.0
 70
    64
  0
VERTEX
  8
I-UNIT
  5
13F
 10
1683.093691
 20
683.854147
 30
-1510.0
 70
    64
  0
VERTEX
  8
I-UNIT
  5
140
 10
1683.093691
 20
283.854147
 30
-1500.0
 70
    64
  0
VERTEX
  8
I-UNIT
  5
141
 10
1693.093691
 20
283.854147
 30
-1500.0
 70
    64
  0
VERTEX
  8
I-UNIT
  5
142
 10
1693.093691
 20
283.854147
 30
-1510.0
 70
    64
  0
VERTEX
  8
I-UNIT
  5
143
 10
1683.093691
 20
283.854147
 30
-1510.0
 70
    64
  0
SEQEND
  8
I-UNIT
  5
144
  0
POLYLINE
  8
I-UNIT
  5
145
 66
     1
 10
0.0
 20
0.0
 30
0.0
 70
    48
 71
     2
 72
     4
  0
VERTEX
  8
I-UNIT
  5
146
 10
1683.093691
 20
683.854147
 30
-1166.666667
 70
    64
  0
VERTEX
  8
I-UNIT
  5
147
 10
1693.093691
 20
683.854147
 30
-1166.666667
 70
    64
  0
VERTEX
  8
I-UNIT
  5
148
 10
1693.093691
 20
683.854147
 30
-1176.666667
 70
    64
  0
VERTEX
  8
I-UNIT
  5
149
 10
1683.093691
 20
683.854147
 30
-1176.666667
 70
    64
  0
VERTEX
  8
I-UNIT
  5
14A
 10
1683.093691
 20
283.854147
 30
-1166.666667
 70
    64
  0
VERTEX
  8
I-UNIT
  5
14B
 10
1693.093691
 20
283.854147
 30
-1166.666667
 70
    64
  0
VERTEX
  8
I-UNIT
  5
14C
 10
1693.093691
 20
283.854147
 30
-1176.666667
 70
    64
  0
VERTEX
  8
I-UNIT
  5
14D
 10
1683.093691
 20
283.854147
 30
-1176.666667
 70
    64
  0
SEQEND
  8
I-UNIT
  5
14E
  0
POLYLINE
  8
I-UNIT
  5
14F
 66
     1
 10
0.0
 20
0.0
 30
0.0
 70
    48
 71
     2
 72
     4
  0
VERTEX
  8
I-UNIT
  5
150
 10
1683.093691
 20
683.854147
 30
-1333.333333
 70
    64
  0
VERTEX
  8
I-UNIT
  5
151
 10
1693.093691
 20
683.854147
 30
-1333.333333
 70
    64
  0
VERTEX
  8
I-UNIT
  5
152
 10
1693.093691
 20
683.854147
 30
-1343.333333
 70
    64
  0
VERTEX
  8
I-UNIT
  5
153
 10
1683.093691
 20
683.854147
 30
-1343.333333
 70
    64
  0
VERTEX
  8
I-UNIT
  5
154
 10
1683.093691
 20
283.854147
 30
-1333.333333
 70
    64
  0
VERTEX
  8
I-UNIT
  5
155
 10
1693.093691
 20
283.854147
 30
-1333.333333
 70
    64
  0
VERTEX
  8
I-UNIT
  5
156
 10
1693.093691
 20
283.854147
 30
-1343.333333
 70
    64
  0
VERTEX
  8
I-UNIT
  5
157
 10
1683.093691
 20
283.854147
 30
-1343.333333
 70
    64
  0
SEQEND
  8
I-UNIT
  5
158
  0
POLYLINE
  8
I-UNIT
  5
159
 66
     1
 10
0.0
 20
0.0
 30
0.0
 70
    48
 71
     2
 72
     4
  0
VERTEX
  8
I-UNIT
  5
15A
 10
1683.093691
 20
683.854147
 30
-1000.0
 70
    64
  0
VERTEX
  8
I-UNIT
  5
15B
 10
1693.093691
 20
683.854147
 30
-1000.0
 70
    64
  0
VERTEX
  8
I-UNIT
  5
15C
 10
1693.093691
 20
683.854147
 30
-1010.0
 70
    64
  0
VERTEX
  8
I-UNIT
  5
15D
 10
1683.093691
 20
683.854147
 30
-1010.0
 70
    64
  0
VERTEX
  8
I-UNIT
  5
15E
 10
1683.093691
 20
283.854147
 30
-1000.0
 70
    64
  0
VERTEX
  8
I-UNIT
  5
15F
 10
1693.093691
 20
283.854147
 30
-1000.0
 70
    64
  0
VERTEX
  8
I-UNIT
  5
160
 10
1693.093691
 20
283.854147
 30
-1010.0
 70
    64
  0
VERTEX
  8
I-UNIT
  5
161
 10
1683.093691
 20
283.854147
 30
-1010.0
 70
    64
  0
SEQEND
  8
I-UNIT
  5
162
  0
POLYLINE
  8
I-UNIT
  5
163
 66
     1
 10
0.0
 20
0.0
 30
0.0
 70
    48
 71
     2
 72
     4
  0
VERTEX
  8
I-UNIT
  5
164
 10
1683.093691
 20
683.854147
 30
-833.333333
 70
    64
  0
VERTEX
  8
I-UNIT
  5
165
 10
1693.093691
 20
683.854147
 30
-833.333333
 70
    64
  0
VERTEX
  8
I-UNIT
  5
166
 10
1693.093691
 20
683.854147
 30
-843.333333
 70
    64
  0
VERTEX
  8
I-UNIT
  5
167
 10
1683.093691
 20
683.854147
 30
-843.333333
 70
    64
  0
VERTEX
  8
I-UNIT
  5
168
 10
1683.093691
 20
283.854147
 30
-833.333333
 70
    64
  0
VERTEX
  8
I-UNIT
  5
169
 10
1693.093691
 20
283.854147
 30
-833.333333
 70
    64
  0
VERTEX
  8
I-UNIT
  5
16A
 10
1693.093691
 20
283.854147
 30
-843.333333
 70
    64
  0
VERTEX
  8
I-UNIT
  5
16B
 10
1683.093691
 20
283.854147
 30
-843.333333
 70
    64
  0
SEQEND
  8
I-UNIT
  5
16C
  0
POLYLINE
  8
I-UNIT
  5
16D
 66
     1
 10
0.0
 20
0.0
 30
0.0
 70
    48
 71
     2
 72
     4
  0
VERTEX
  8
I-UNIT
  5
16E
 10
1683.093691
 20
683.854147
 30
-500.0
 70
    64
  0
VERTEX
  8
I-UNIT
  5
16F
 10
1693.093691
 20
683.854147
 30
-500.0
 70
    64
  0
VERTEX
  8
I-UNIT
  5
170
 10
1693.093691
 20
683.854147
 30
-510.0
 70
    64
  0
VERTEX
  8
I-UNIT
  5
171
 10
1683.093691
 20
683.854147
 30
-510.0
 70
    64
  0
VERTEX
  8
I-UNIT
  5
172
 10
1683.093691
 20
283.854147
 30
-500.0
 70
    64
  0
VERTEX
  8
I-UNIT
  5
173
 10
1693.093691
 20
283.854147
 30
-500.0
 70
    64
  0
VERTEX
  8
I-UNIT
  5
174
 10
1693.093691
 20
283.854147
 30
-510.0
 70
    64
  0
VERTEX
  8
I-UNIT
  5
175
 10
1683.093691
 20
283.854147
 30
-510.0
 70
    64
  0
SEQEND
  8
I-UNIT
  5
176
  0
POLYLINE
  8
I-UNIT
  5
177
 66
     1
 10
0.0
 20
0.0
 30
0.0
 70
    48
 71
     2
 72
     4
  0
VERTEX
  8
I-UNIT
  5
178
 10
1683.093691
 20
683.854147
 30
-666.666667
 70
    64
  0
VERTEX
  8
I-UNIT
  5
179
 10
1693.093691
 20
683.854147
 30
-666.666667
 70
    64
  0
VERTEX
  8
I-UNIT
  5
17A
 10
1693.093691
 20
683.854147
 30
-676.666667
 70
    64
  0
VERTEX
  8
I-UNIT
  5
17B
 10
1683.093691
 20
683.854147
 30
-676.666667
 70
    64
  0
VERTEX
  8
I-UNIT
  5
17C
 10
1683.093691
 20
283.854147
 30
-666.666667
 70
    64
  0
VERTEX
  8
I-UNIT
  5
17D
 10
1693.093691
 20
283.854147
 30
-666.666667
 70
    64
  0
VERTEX
  8
I-UNIT
  5
17E
 10
1693.093691
 20
283.854147
 30
-676.666667
 70
    64
  0
VERTEX
  8
I-UNIT
  5
17F
 10
1683.093691
 20
283.854147
 30
-676.666667
 70
    64
  0
SEQEND
  8
I-UNIT
  5
180
  0
POLYLINE
  8
I-UNIT
  5
181
 66
     1
 10
0.0
 20
0.0
 30
0.0
 70
    48
 71
     2
 72
     4
  0
VERTEX
  8
I-UNIT
  5
182
 10
1683.093691
 20
683.854147
 30
-333.333333
 70
    64
  0
VERTEX
  8
I-UNIT
  5
183
 10
1693.093691
 20
683.854147
 30
-333.333333
 70
    64
  0
VERTEX
  8
I-UNIT
  5
184
 10
1693.093691
 20
683.854147
 30
-343.333333
 70
    64
  0
VERTEX
  8
I-UNIT
  5
185
 10
1683.093691
 20
683.854147
 30
-343.333333
 70
    64
  0
VERTEX
  8
I-UNIT
  5
186
 10
1683.093691
 20
283.854147
 30
-333.333333
 70
    64
  0
VERTEX
  8
I-UNIT
  5
187
 10
1693.093691
 20
283.854147
 30
-333.333333
 70
    64
  0
VERTEX
  8
I-UNIT
  5
188
 10
1693.093691
 20
283.854147
 30
-343.333333
 70
    64
  0
VERTEX
  8
I-UNIT
  5
189
 10
1683.093691
 20
283.854147
 30
-343.333333
 70
    64
  0
SEQEND
  8
I-UNIT
  5
18A
  0
POLYLINE
  8
I-UNIT
  5
18B
 66
     1
 10
0.0
 20
0.0
 30
0.0
 70
    48
 71
     2
 72
     4
  0
VERTEX
  8
I-UNIT
  5
18C
 10
1683.093691
 20
683.854147
 30
-166.666667
 70
    64
  0
VERTEX
  8
I-UNIT
  5
18D
 10
1693.093691
 20
683.854147
 30
-166.666667
 70
    64
  0
VERTEX
  8
I-UNIT
  5
18E
 10
1693.093691
 20
683.854147
 30
-176.666667
 70
    64
  0
VERTEX
  8
I-UNIT
  5
18F
 10
1683.093691
 20
683.854147
 30
-176.666667
 70
    64
  0
VERTEX
  8
I-UNIT
  5
190
 10
1683.093691
 20
283.854147
 30
-166.666667
 70
    64
  0
VERTEX
  8
I-UNIT
  5
191
 10
1693.093691
 20
283.854147
 30
-166.666667
 70
    64
  0
VERTEX
  8
I-UNIT
  5
192
 10
1693.093691
 20
283.854147
 30
-176.666667
 70
    64
  0
VERTEX
  8
I-UNIT
  5
193
 10
1683.093691
 20
283.854147
 30
-176.666667
 70
    64
  0
SEQEND
  8
I-UNIT
  5
194
  0
POLYLINE
  8
I-UNIT
  5
195
 66
     1
 10
0.0
 20
0.0
 30
0.0
 70
    48
 71
     2
 72
     4
  0
VERTEX
  8
I-UNIT
  5
196
 10
1683.093691
 20
683.854147
 30
0.0
 70
    64
  0
VERTEX
  8
I-UNIT
  5
197
 10
1693.093691
 20
683.854147
 30
0.0
 70
    64
  0
VERTEX
  8
I-UNIT
  5
198
 10
1693.093691
 20
683.854147
 30
-10.0
 70
    64
  0
VERTEX
  8
I-UNIT
  5
199
 10
1683.093691
 20
683.854147
 30
-10.0
 70
    64
  0
VERTEX
  8
I-UNIT
  5
19A
 10
1683.093691
 20
283.854147
 30
0.0
 70
    64
  0
VERTEX
  8
I-UNIT
  5
19B
 10
1693.093691
 20
283.854147
 30
0.0
 70
    64
  0
VERTEX
  8
I-UNIT
  5
19C
 10
1693.093691
 20
283.854147
 30
-10.0
 70
    64
  0
VERTEX
  8
I-UNIT
  5
19D
 10
1683.093691
 20
283.854147
 30
-10.0
 70
    64
  0
SEQEND
  8
I-UNIT
  5
19E
  0
LINE
  8
I-UNIT
  5
19F
 10
1693.093691
 20
683.854147
 30
0.0
 11
1693.093691
 21
283.854147
 31
0.0
210
0.0
220
-1.0
230
0.0
  0
POLYLINE
  8
I-UNIT
  5
1DE
 66
     1
 10
0.0
 20
0.0
 30
0.0
 70
    48
 71
     2
 72
     4
  0
VERTEX
  8
I-UNIT
  5
1DF
 10
2103.093691
 20
683.854147
 30
-1666.666667
 70
    64
  0
VERTEX
  8
I-UNIT
  5
1E0
 10
2113.093691
 20
683.854147
 30
-1666.666667
 70
    64
  0
VERTEX
  8
I-UNIT
  5
1E1
 10
2113.093691
 20
683.854147
 30
-1676.666667
 70
    64
  0
VERTEX
  8
I-UNIT
  5
1E2
 10
2103.093691
 20
683.854147
 30
-1676.666667
 70
    64
  0
VERTEX
  8
I-UNIT
  5
1E3
 10
2103.093691
 20
283.854147
 30
-1666.666667
 70
    64
  0
VERTEX
  8
I-UNIT
  5
1E4
 10
2113.093691
 20
283.854147
 30
-1666.666667
 70
    64
  0
VERTEX
  8
I-UNIT
  5
1E5
 10
2113.093691
 20
283.854147
 30
-1676.666667
 70
    64
  0
VERTEX
  8
I-UNIT
  5
1E6
 10
2103.093691
 20
283.854147
 30
-1676.666667
 70
    64
  0
SEQEND
  8
I-UNIT
  5
1E7
  0
POLYLINE
  8
I-UNIT
  5
1E8
 66
     1
 10
0.0
 20
0.0
 30
0.0
 70
    48
 71
     2
 72
     4
  0
VERTEX
  8
I-UNIT
  5
1E9
 10
2103.093691
 20
683.854147
 30
-1833.333333
 70
    64
  0
VERTEX
  8
I-UNIT
  5
1EA
 10
2113.093691
 20
683.854147
 30
-1833.333333
 70
    64
  0
VERTEX
  8
I-UNIT
  5
1EB
 10
2113.093691
 20
683.854147
 30
-1843.333333
 70
    64
  0
VERTEX
  8
I-UNIT
  5
1EC
 10
2103.093691
 20
683.854147
 30
-1843.333333
 70
    64
  0
VERTEX
  8
I-UNIT
  5
1ED
 10
2103.093691
 20
283.854147
 30
-1833.333333
 70
    64
  0
VERTEX
  8
I-UNIT
  5
1EE
 10
2113.093691
 20
283.854147
 30
-1833.333333
 70
    64
  0
VERTEX
  8
I-UNIT
  5
1EF
 10
2113.093691
 20
283.854147
 30
-1843.333333
 70
    64
  0
VERTEX
  8
I-UNIT
  5
1F0
 10
2103.093691
 20
283.854147
 30
-1843.333333
 70
    64
  0
SEQEND
  8
I-UNIT
  5
1F1
  0
POLYLINE
  8
I-UNIT
  5
1F2
 66
     1
 10
0.0
 20
0.0
 30
0.0
 70
    48
 71
     2
 72
     4
  0
VERTEX
  8
I-UNIT
  5
1F3
 10
2103.093691
 20
683.854147
 30
-1000.0
 70
    64
  0
VERTEX
  8
I-UNIT
  5
1F4
 10
2113.093691
 20
683.854147
 30
-1000.0
 70
    64
  0
VERTEX
  8
I-UNIT
  5
1F5
 10
2113.093691
 20
683.854147
 30
-1010.0
 70
    64
  0
VERTEX
  8
I-UNIT
  5
1F6
 10
2103.093691
 20
683.854147
 30
-1010.0
 70
    64
  0
VERTEX
  8
I-UNIT
  5
1F7
 10
2103.093691
 20
283.854147
 30
-1000.0
 70
    64
  0
VERTEX
  8
I-UNIT
  5
1F8
 10
2113.093691
 20
283.854147
 30
-1000.0
 70
    64
  0
VERTEX
  8
I-UNIT
  5
1F9
 10
2113.093691
 20
283.854147
 30
-1010.0
 70
    64
  0
VERTEX
  8
I-UNIT
  5
1FA
 10
2103.093691
 20
283.854147
 30
-1010.0
 70
    64
  0
SEQEND
  8
I-UNIT
  5
1FB
  0
POLYLINE
  8
I-UNIT
  5
1FC
 66
     1
 10
0.0
 20
0.0
 30
0.0
 70
    48
 71
     2
 72
     4
  0
VERTEX
  8
I-UNIT
  5
1FD
 10
2103.093691
 20
683.854147
 30
-1166.666667
 70
    64
  0
VERTEX
  8
I-UNIT
  5
1FE
 10
2113.093691
 20
683.854147
 30
-1166.666667
 70
    64
  0
VERTEX
  8
I-UNIT
  5
1FF
 10
2113.093691
 20
683.854147
 30
-1176.666667
 70
    64
  0
VERTEX
  8
I-UNIT
  5
200
 10
2103.093691
 20
683.854147
 30
-1176.666667
 70
    64
  0
VERTEX
  8
I-UNIT
  5
201
 10
2103.093691
 20
283.854147
 30
-1166.666667
 70
    64
  0
VERTEX
  8
I-UNIT
  5
202
 10
2113.093691
 20
283.854147
 30
-1166.666667
 70
    64
  0
VERTEX
  8
I-UNIT
  5
203
 10
2113.093691
 20
283.854147
 30
-1176.666667
 70
    64
  0
VERTEX
  8
I-UNIT
  5
204
 10
2103.093691
 20
283.854147
 30
-1176.666667
 70
    64
  0
SEQEND
  8
I-UNIT
  5
205
  0
POLYLINE
  8
I-UNIT
  5
206
 66
     1
 10
0.0
 20
0.0
 30
0.0
 70
    48
 71
     2
 72
     4
  0
VERTEX
  8
I-UNIT
  5
207
 10
2103.093691
 20
683.854147
 30
-1500.0
 70
    64
  0
VERTEX
  8
I-UNIT
  5
208
 10
2113.093691
 20
683.854147
 30
-1500.0
 70
    64
  0
VERTEX
  8
I-UNIT
  5
209
 10
2113.093691
 20
683.854147
 30
-1510.0
 70
    64
  0
VERTEX
  8
I-UNIT
  5
20A
 10
2103.093691
 20
683.854147
 30
-1510.0
 70
    64
  0
VERTEX
  8
I-UNIT
  5
20B
 10
2103.093691
 20
283.854147
 30
-1500.0
 70
    64
  0
VERTEX
  8
I-UNIT
  5
20C
 10
2113.093691
 20
283.854147
 30
-1500.0
 70
    64
  0
VERTEX
  8
I-UNIT
  5
20D
 10
2113.093691
 20
283.854147
 30
-1510.0
 70
    64
  0
VERTEX
  8
I-UNIT
  5
20E
 10
2103.093691
 20
283.854147
 30
-1510.0
 70
    64
  0
SEQEND
  8
I-UNIT
  5
20F
  0
POLYLINE
  8
I-UNIT
  5
210
 66
     1
 10
0.0
 20
0.0
 30
0.0
 70
    48
 71
     2
 72
     4
  0
VERTEX
  8
I-UNIT
  5
211
 10
2103.093691
 20
683.854147
 30
-1333.333333
 70
    64
  0
VERTEX
  8
I-UNIT
  5
212
 10
2113.093691
 20
683.854147
 30
-1333.333333
 70
    64
  0
VERTEX
  8
I-UNIT
  5
213
 10
2113.093691
 20
683.854147
 30
-1343.333333
 70
    64
  0
VERTEX
  8
I-UNIT
  5
214
 10
2103.093691
 20
683.854147
 30
-1343.333333
 70
    64
  0
VERTEX
  8
I-UNIT
  5
215
 10
2103.093691
 20
283.854147
 30
-1333.333333
 70
    64
  0
VERTEX
  8
I-UNIT
  5
216
 10
2113.093691
 20
283.854147
 30
-1333.333333
 70
    64
  0
VERTEX
  8
I-UNIT
  5
217
 10
2113.093691
 20
283.854147
 30
-1343.333333
 70
    64
  0
VERTEX
  8
I-UNIT
  5
218
 10
2103.093691
 20
283.854147
 30
-1343.333333
 70
    64
  0
SEQEND
  8
I-UNIT
  5
219
  0
POLYLINE
  8
I-UNIT
  5
21A
 66
     1
 10
0.0
 20
0.0
 30
-950.0
 70
     1
  0
VERTEX
  8
I-UNIT
  5
21B
 10
2093.093691
 20
283.854147
 30
-950.0
  0
VERTEX
  8
I-UNIT
  5
21C
 10
2093.093691
 20
308.854147
 30
-950.0
  0
VERTEX
  8
I-UNIT
  5
21D
 10
2103.093691
 20
308.854147
 30
-950.0
  0
VERTEX
  8
I-UNIT
  5
21E
 10
2103.093691
 20
283.854147
 30
-950.0
  0
SEQEND
  8
I-UNIT
  5
21F
  0
POLYLINE
  8
I-UNIT
  5
220
 66
     1
 10
0.0
 20
0.0
 30
-950.0
 70
     1
  0
VERTEX
  8
I-UNIT
  5
221
 10
2113.093691
 20
283.854147
 30
-950.0
  0
VERTEX
  8
I-UNIT
  5
222
 10
2113.093691
 20
308.854147
 30
-950.0
  0
VERTEX
  8
I-UNIT
  5
223
 10
2123.093691
 20
308.854147
 30
-950.0
  0
VERTEX
  8
I-UNIT
  5
224
 10
2123.093691
 20
283.854147
 30
-950.0
  0
SEQEND
  8
I-UNIT
  5
225
  0
POLYLINE
  8
I-UNIT
  5
226
 66
     1
 10
0.0
 20
0.0
 30
-950.0
 70
     1
  0
VERTEX
  8
I-UNIT
  5
227
 10
2113.093691
 20
658.854147
 30
-950.0
  0
VERTEX
  8
I-UNIT
  5
228
 10
2113.093691
 20
683.854147
 30
-950.0
  0
VERTEX
  8
I-UNIT
  5
229
 10
2123.093691
 20
683.854147
 30
-950.0
  0
VERTEX
  8
I-UNIT
  5
22A
 10
2123.093691
 20
658.854147
 30
-950.0
  0
SEQEND
  8
I-UNIT
  5
22B
  0
POLYLINE
  8
I-UNIT
  5
22C
 66
     1
 10
0.0
 20
0.0
 30
-950.0
 70
     1
  0
VERTEX
  8
I-UNIT
  5
22D
 10
2093.093691
 20
658.854147
 30
-950.0
  0
VERTEX
  8
I-UNIT
  5
22E
 10
2093.093691
 20
683.854147
 30
-950.0
  0
VERTEX
  8
I-UNIT
  5
22F
 10
2103.093691
 20
683.854147
 30
-950.0
  0
VERTEX
  8
I-UNIT
  5
230
 10
2103.093691
 20
658.854147
 30
-950.0
  0
SEQEND
  8
I-UNIT
  5
231
  0
LINE
  8
I-UNIT
  5
232
 10
843.093691
 20
683.854147
 30
50.0
 11
843.093691
 21
683.854147
 31
-1893.0
  0
LINE
  8
I-UNIT
  5
233
 10
2123.093691
 20
283.854147
 30
-950.0
 11
2123.093691
 21
283.854147
 31
-1893.0
  0
LINE
  8
I-UNIT
  5
23C
 10
883.093691
 20
328.854147
 30
-176.666667
 11
883.093691
 21
638.854147
 31
-176.666667
  0
POLYLINE
  8
I-UNIT
  5
241
 66
     1
 10
0.0
 20
0.0
 30
-843.093691
 70
     1
210
-1.0
220
0.0
230
0.0
  0
VERTEX
  8
I-UNIT
  5
242
 10
-658.854147
 20
-166.666667
 30
-843.093691
  0
VERTEX
  8
I-UNIT
  5
243
 10
-658.854147
 20
-156.666667
 30
-843.093691
  0
VERTEX
  8
I-UNIT
  5
244
 10
-648.854147
 20
-156.666667
 30
-843.093691
  0
VERTEX
  8
I-UNIT
  5
245
 10
-648.854147
 20
-166.666667
 30
-843.093691
  0
SEQEND
  8
I-UNIT
  5
246
  0
POLYLINE
  8
I-UNIT
  5
247
 66
     1
 10
0.0
 20
0.0
 30
-843.093691
 70
     1
210
-1.0
220
0.0
230
0.0
  0
VERTEX
  8
I-UNIT
  5
248
 10
-658.854147
 20
-186.666667
 30
-843.093691
  0
VERTEX
  8
I-UNIT
  5
249
 10
-658.854147
 20
-176.666667
 30
-843.093691
  0
VERTEX
  8
I-UNIT
  5
24A
 10
-648.854147
 20
-176.666667
 30
-843.093691
  0
VERTEX
  8
I-UNIT
  5
24B
 10
-648.854147
 20
-186.666667
 30
-843.093691
  0
SEQEND
  8
I-UNIT
  5
24C
  0
POLYLINE
  8
I-UNIT
  5
24D
 66
     1
 10
0.0
 20
0.0
 30
-843.093691
 70
     1
210
-1.0
220
0.0
230
0.0
  0
VERTEX
  8
I-UNIT
  5
24E
 10
-318.854147
 20
-166.666667
 30
-843.093691
  0
VERTEX
  8
I-UNIT
  5
24F
 10
-318.854147
 20
-156.666667
 30
-843.093691
  0
VERTEX
  8
I-UNIT
  5
250
 10
-308.854147
 20
-156.666667
 30
-843.093691
  0
VERTEX
  8
I-UNIT
  5
251
 10
-308.854147
 20
-166.666667
 30
-843.093691
  0
SEQEND
  8
I-UNIT
  5
252
  0
POLYLINE
  8
I-UNIT
  5
253
 66
     1
 10
0.0
 20
0.0
 30
-843.093691
 70
     1
210
-1.0
220
0.0
230
0.0
  0
VERTEX
  8
I-UNIT
  5
254
 10
-318.854147
 20
-186.666667
 30
-843.093691
  0
VERTEX
  8
I-UNIT
  5
255
 10
-318.854147
 20
-176.666667
 30
-843.093691
  0
VERTEX
  8
I-UNIT
  5
256
 10
-308.854147
 20
-176.666667
 30
-843.093691
  0
VERTEX
  8
I-UNIT
  5
257
 10
-308.854147
 20
-186.666667
 30
-843.093691
  0
SEQEND
  8
I-UNIT
  5
258
  0
POLYLINE
  8
I-UNIT
  5
273
 66
     1
 10
0.0
 20
0.0
 30
-308.854147
 70
     1
210
0.0
220
-1.0
230
0.0
  0
VERTEX
  8
I-UNIT
  5
274
 10
873.093691
 20
-176.666667
 30
-308.854147
  0
VERTEX
  8
I-UNIT
  5
275
 10
873.093691
 20
-166.666667
 30
-308.854147
  0
VERTEX
  8
I-UNIT
  5
276
 10
883.093691
 20
-166.666667
 30
-308.854147
  0
VERTEX
  8
I-UNIT
  5
277
 10
883.093691
 20
-176.666667
 30
-308.854147
  0
SEQEND
  8
I-UNIT
  5
278
  0
POLYLINE
  8
I-UNIT
  5
27C
 66
     1
 10
0.0
 20
0.0
 30
-308.854147
 70
     1
210
0.0
220
-1.0
230
0.0
  0
VERTEX
  8
I-UNIT
  5
27D
 10
1068.093691
 20
-176.666667
 30
-308.854147
  0
VERTEX
  8
I-UNIT
  5
27E
 10
1068.093691
 20
-166.666667
 30
-308.854147
  0
VERTEX
  8
I-UNIT
  5
27F
 10
1078.093691
 20
-166.666667
 30
-308.854147
  0
VERTEX
  8
I-UNIT
  5
280
 10
1078.093691
 20
-176.666667
 30
-308.854147
  0
SEQEND
  8
I-UNIT
  5
281
  0
POLYLINE
  8
I-UNIT
  5
282
 66
     1
 10
0.0
 20
0.0
 30
-308.854147
 70
     1
210
0.0
220
-1.0
230
0.0
  0
VERTEX
  8
I-UNIT
  5
283
 10
1268.093691
 20
-176.666667
 30
-308.854147
  0
VERTEX
  8
I-UNIT
  5
284
 10
1268.093691
 20
-166.666667
 30
-308.854147
  0
VERTEX
  8
I-UNIT
  5
285
 10
1278.093691
 20
-166.666667
 30
-308.854147
  0
VERTEX
  8
I-UNIT
  5
286
 10
1278.093691
 20
-176.666667
 30
-308.854147
  0
SEQEND
  8
I-UNIT
  5
287
  0
POLYLINE
  8
I-UNIT
  5
288
 66
     1
 10
0.0
 20
0.0
 30
-308.854147
 70
     1
210
0.0
220
-1.0
230
0.0
  0
VERTEX
  8
I-UNIT
  5
289
 10
1468.093691
 20
-176.666667
 30
-308.854147
  0
VERTEX
  8
I-UNIT
  5
28A
 10
1468.093691
 20
-166.666667
 30
-308.854147
  0
VERTEX
  8
I-UNIT
  5
28B
 10
1478.093691
 20
-166.666667
 30
-308.854147
  0
VERTEX
  8
I-UNIT
  5
28C
 10
1478.093691
 20
-176.666667
 30
-308.854147
  0
SEQEND
  8
I-UNIT
  5
28D
  0
POLYLINE
  8
I-UNIT
  5
28E
 66
     1
 10
0.0
 20
0.0
 30
-308.854147
 70
     1
210
0.0
220
-1.0
230
0.0
  0
VERTEX
  8
I-UNIT
  5
28F
 10
1663.093691
 20
-176.666667
 30
-308.854147
  0
VERTEX
  8
I-UNIT
  5
290
 10
1663.093691
 20
-166.666667
 30
-308.854147
  0
VERTEX
  8
I-UNIT
  5
291
 10
1673.093691
 20
-166.666667
 30
-308.854147
  0
VERTEX
  8
I-UNIT
  5
292
 10
1673.093691
 20
-176.666667
 30
-308.854147
  0
SEQEND
  8
I-UNIT
  5
293
  0
LINE
  8
I-UNIT
  5
2BF
 10
883.093691
 20
328.854147
 30
-166.666667
 11
883.093691
 21
328.854147
 31
-176.666667
210
0.0
220
-1.0
230
0.0
  0
LINE
  8
I-UNIT
  5
2C0
 10
883.093691
 20
328.854147
 30
-176.666667
 11
1673.093691
 21
328.854147
 31
-176.666667
210
0.0
220
-1.0
230
0.0
  0
LINE
  8
I-UNIT
  5
2C1
 10
1673.093691
 20
328.854147
 30
-176.666667
 11
1673.093691
 21
328.854147
 31
-166.666667
210
0.0
220
-1.0
230
0.0
  0
LINE
  8
I-UNIT
  5
2C2
 10
1673.093691
 20
328.854147
 30
-166.666667
 11
883.093691
 21
328.854147
 31
-166.666667
210
0.0
220
-1.0
230
0.0
  0
3DFACE
  8
I-UNIT
  5
2C3
 10
883.093691
 20
328.854147
 30
-166.666667
 11
883.093691
 21
328.854147
 31
-176.666667
 12
1673.093691
 22
328.854147
 32
-176.666667
 13
1673.093691
 23
328.854147
 33
-166.666667
  0
POLYLINE
  8
I-UNIT
  5
301
 66
     1
 10
0.0
 20
0.0
 30
658.854147
 70
     1
210
0.0
220
1.0
230
0.0
  0
VERTEX
  8
I-UNIT
  5
302
 10
-873.093691
 20
-176.666667
 30
658.854147
  0
VERTEX
  8
I-UNIT
  5
303
 10
-873.093691
 20
-166.666667
 30
658.854147
  0
VERTEX
  8
I-UNIT
  5
304
 10
-883.093691
 20
-166.666667
 30
658.854147
  0
VERTEX
  8
I-UNIT
  5
305
 10
-883.093691
 20
-176.666667
 30
658.854147
  0
SEQEND
  8
I-UNIT
  5
306
  0
LINE
  8
I-UNIT
  5
307
 10
873.093691
 20
658.854147
 30
-166.666667
 11
873.093691
 21
308.854147
 31
-166.666667
  0
LINE
  8
I-UNIT
  5
308
 10
843.093691
 20
658.854147
 30
-156.666667
 11
1703.093691
 21
658.854147
 31
-156.666667
  0
POLYLINE
  8
I-UNIT
  5
316
 66
     1
 10
0.0
 20
0.0
 30
0.0
 70
    48
 71
     2
 72
     4
  0
VERTEX
  8
I-UNIT
  5
317
 10
883.093691
 20
308.854147
 30
-176.666667
 70
    64
  0
VERTEX
  8
I-UNIT
  5
318
 10
883.093691
 20
308.854147
 30
-166.666667
 70
    64
  0
VERTEX
  8
I-UNIT
  5
319
 10
873.093691
 20
308.854147
 30
-166.666667
 70
    64
  0
VERTEX
  8
I-UNIT
  5
31A
 10
873.093691
 20
308.854147
 30
-176.666667
 70
    64
  0
VERTEX
  8
I-UNIT
  5
31B
 10
883.093691
 20
658.854147
 30
-176.666667
 70
    64
  0
VERTEX
  8
I-UNIT
  5
31C
 10
883.093691
 20
658.854147
 30
-166.666667
 70
    64
  0
VERTEX
  8
I-UNIT
  5
31D
 10
873.093691
 20
658.854147
 30
-166.666667
 70
    64
  0
VERTEX
  8
I-UNIT
  5
31E
 10
873.093691
 20
658.854147
 30
-176.666667
 70
    64
  0
SEQEND
  8
I-UNIT
  5
31F
  0
POLYLINE
  8
I-UNIT
  5
320
 66
     1
 10
0.0
 20
0.0
 30
0.0
 70
    48
 71
     2
 72
     4
  0
VERTEX
  8
I-UNIT
  5
321
 10
1078.093691
 20
308.854147
 30
-176.666667
 70
    64
  0
VERTEX
  8
I-UNIT
  5
322
 10
1078.093691
 20
308.854147
 30
-166.666667
 70
    64
  0
VERTEX
  8
I-UNIT
  5
323
 10
1068.093691
 20
308.854147
 30
-166.666667
 70
    64
  0
VERTEX
  8
I-UNIT
  5
324
 10
1068.093691
 20
308.854147
 30
-176.666667
 70
    64
  0
VERTEX
  8
I-UNIT
  5
325
 10
1078.093691
 20
658.854147
 30
-176.666667
 70
    64
  0
VERTEX
  8
I-UNIT
  5
326
 10
1078.093691
 20
658.854147
 30
-166.666667
 70
    64
  0
VERTEX
  8
I-UNIT
  5
327
 10
1068.093691
 20
658.854147
 30
-166.666667
 70
    64
  0
VERTEX
  8
I-UNIT
  5
328
 10
1068.093691
 20
658.854147
 30
-176.666667
 70
    64
  0
SEQEND
  8
I-UNIT
  5
329
  0
POLYLINE
  8
I-UNIT
  5
32A
 66
     1
 10
0.0
 20
0.0
 30
0.0
 70
    48
 71
     2
 72
     4
  0
VERTEX
  8
I-UNIT
  5
32B
 10
1278.093691
 20
308.854147
 30
-176.666667
 70
    64
  0
VERTEX
  8
I-UNIT
  5
32C
 10
1278.093691
 20
308.854147
 30
-166.666667
 70
    64
  0
VERTEX
  8
I-UNIT
  5
32D
 10
1268.093691
 20
308.854147
 30
-166.666667
 70
    64
  0
VERTEX
  8
I-UNIT
  5
32E
 10
1268.093691
 20
308.854147
 30
-176.666667
 70
    64
  0
VERTEX
  8
I-UNIT
  5
32F
 10
1278.093691
 20
658.854147
 30
-176.666667
 70
    64
  0
VERTEX
  8
I-UNIT
  5
330
 10
1278.093691
 20
658.854147
 30
-166.666667
 70
    64
  0
VERTEX
  8
I-UNIT
  5
331
 10
1268.093691
 20
658.854147
 30
-166.666667
 70
    64
  0
VERTEX
  8
I-UNIT
  5
332
 10
1268.093691
 20
658.854147
 30
-176.666667
 70
    64
  0
SEQEND
  8
I-UNIT
  5
333
  0
POLYLINE
  8
I-UNIT
  5
334
 66
     1
 10
0.0
 20
0.0
 30
0.0
 70
    48
 71
     2
 72
     4
  0
VERTEX
  8
I-UNIT
  5
335
 10
1478.093691
 20
308.854147
 30
-176.666667
 70
    64
  0
VERTEX
  8
I-UNIT
  5
336
 10
1478.093691
 20
308.854147
 30
-166.666667
 70
    64
  0
VERTEX
  8
I-UNIT
  5
337
 10
1468.093691
 20
308.854147
 30
-166.666667
 70
    64
  0
VERTEX
  8
I-UNIT
  5
338
 10
1468.093691
 20
308.854147
 30
-176.666667
 70
    64
  0
VERTEX
  8
I-UNIT
  5
339
 10
1478.093691
 20
658.854147
 30
-176.666667
 70
    64
  0
VERTEX
  8
I-UNIT
  5
33A
 10
1478.093691
 20
658.854147
 30
-166.666667
 70
    64
  0
VERTEX
  8
I-UNIT
  5
33B
 10
1468.093691
 20
658.854147
 30
-166.666667
 70
    64
  0
VERTEX
  8
I-UNIT
  5
33C
 10
1468.093691
 20
658.854147
 30
-176.666667
 70
    64
  0
SEQEND
  8
I-UNIT
  5
33D
  0
LINE
  8
I-UNIT
  5
370
 10
1673.093691
 20
328.854147
 30
-166.666667
 11
1673.093691
 21
638.854147
 31
-166.666667
  0
3DFACE
  8
I-UNIT
  5
380
 10
883.093691
 20
348.229147
 30
-166.666667
 11
883.093691
 21
348.229147
 31
-176.666667
 12
1673.093691
 22
348.229147
 32
-176.666667
 13
1673.093691
 23
348.229147
 33
-166.666667
  0
3DFACE
  8
I-UNIT
  5
382
 10
883.093691
 20
386.979147
 30
-166.666667
 11
883.093691
 21
386.979147
 31
-176.666667
 12
1673.093691
 22
386.979147
 32
-176.666667
 13
1673.093691
 23
386.979147
 33
-166.666667
  0
3DFACE
  8
I-UNIT
  5
384
 10
883.093691
 20
425.729147
 30
-166.666667
 11
883.093691
 21
425.729147
 31
-176.666667
 12
1673.093691
 22
425.729147
 32
-176.666667
 13
1673.093691
 23
425.729147
 33
-166.666667
  0
3DFACE
  8
I-UNIT
  5
386
 10
883.093691
 20
464.479147
 30
-166.666667
 11
883.093691
 21
464.479147
 31
-176.666667
 12
1673.093691
 22
464.479147
 32
-176.666667
 13
1673.093691
 23
464.479147
 33
-166.666667
  0
3DFACE
  8
I-UNIT
  5
388
 10
883.093691
 20
503.229147
 30
-166.666667
 11
883.093691
 21
503.229147
 31
-176.666667
 12
1673.093691
 22
503.229147
 32
-176.666667
 13
1673.093691
 23
503.229147
 33
-166.666667
  0
3DFACE
  8
I-UNIT
  5
38A
 10
883.093691
 20
541.979147
 30
-166.666667
 11
883.093691
 21
541.979147
 31
-176.666667
 12
1673.093691
 22
541.979147
 32
-176.666667
 13
1673.093691
 23
541.979147
 33
-166.666667
  0
3DFACE
  8
I-UNIT
  5
38C
 10
883.093691
 20
580.729147
 30
-166.666667
 11
883.093691
 21
580.729147
 31
-176.666667
 12
1673.093691
 22
580.729147
 32
-176.666667
 13
1673.093691
 23
580.729147
 33
-166.666667
  0
3DFACE
  8
I-UNIT
  5
38E
 10
883.093691
 20
619.479147
 30
-166.666667
 11
883.093691
 21
619.479147
 31
-176.666667
 12
1673.093691
 22
619.479147
 32
-176.666667
 13
1673.093691
 23
619.479147
 33
-166.666667
  0
3DFACE
  8
I-UNIT
  5
38F
 10
883.093691
 20
638.854147
 30
-166.666667
 11
883.093691
 21
638.854147
 31
-176.666667
 12
1673.093691
 22
638.854147
 32
-176.666667
 13
1673.093691
 23
638.854147
 33
-166.666667
  0
LINE
  8
I-UNIT
  5
3BB
 10
1693.093691
 20
308.854147
 30
-1166.666667
 11
1693.093691
 21
658.854147
 31
-1166.666667
  0
POLYLINE
  8
I-UNIT
  5
3C1
 66
     1
 10
0.0
 20
0.0
 30
-318.854147
 70
     1
210
0.0
220
-1.0
230
0.0
  0
VERTEX
  8
I-UNIT
  5
3C2
 10
1693.093691
 20
-1176.666667
 30
-318.854147
  0
VERTEX
  8
I-UNIT
  5
3C3
 10
1693.093691
 20
-1166.666667
 30
-318.854147
  0
VERTEX
  8
I-UNIT
  5
3C4
 10
1703.093691
 20
-1166.666667
 30
-318.854147
  0
VERTEX
  8
I-UNIT
  5
3C5
 10
1703.093691
 20
-1176.666667
 30
-318.854147
  0
SEQEND
  8
I-UNIT
  5
3C6
  0
POLYLINE
  8
I-UNIT
  5
3C7
 66
     1
 10
0.0
 20
0.0
 30
-308.854147
 70
     1
210
0.0
220
-1.0
230
0.0
  0
VERTEX
  8
I-UNIT
  5
3C8
 10
2093.093691
 20
-1176.666667
 30
-308.854147
  0
VERTEX
  8
I-UNIT
  5
3C9
 10
2093.093691
 20
-1166.666667
 30
-308.854147
  0
VERTEX
  8
I-UNIT
  5
3CA
 10
2103.093691
 20
-1166.666667
 30
-308.854147
  0
VERTEX
  8
I-UNIT
  5
3CB
 10
2103.093691
 20
-1176.666667
 30
-308.854147
  0
SEQEND
  8
I-UNIT
  5
3CC
  0
POLYLINE
  8
I-UNIT
  5
3CD
 66
     1
 10
0.0
 20
0.0
 30
-308.854147
 70
     1
210
0.0
220
-1.0
230
0.0
  0
VERTEX
  8
I-UNIT
  5
3CE
 10
1888.093691
 20
-1176.666667
 30
-308.854147
  0
VERTEX
  8
I-UNIT
  5
3CF
 10
1888.093691
 20
-1166.666667
 30
-308.854147
  0
VERTEX
  8
I-UNIT
  5
3D0
 10
1898.093691
 20
-1166.666667
 30
-308.854147
  0
VERTEX
  8
I-UNIT
  5
3D1
 10
1898.093691
 20
-1176.666667
 30
-308.854147
  0
SEQEND
  8
I-UNIT
  5
3D2
  0
3DFACE
  8
I-UNIT
  5
3D3
 10
1693.093691
 20
330.729147
 30
-1166.666667
 11
1693.093691
 21
330.729147
 31
-1176.666667
 12
2093.093691
 22
330.729147
 32
-1176.666667
 13
2093.093691
 23
330.729147
 33
-1166.666667
  0
3DFACE
  8
I-UNIT
  5
3E3
 10
1693.093691
 20
352.604147
 30
-1166.666667
 11
1693.093691
 21
352.604147
 31
-1176.666667
 12
2093.093691
 22
352.604147
 32
-1176.666667
 13
2093.093691
 23
352.604147
 33
-1166.666667
  0
3DFACE
  8
I-UNIT
  5
3E5
 10
1693.093691
 20
396.354147
 30
-1166.666667
 11
1693.093691
 21
396.354147
 31
-1176.666667
 12
2093.093691
 22
396.354147
 32
-1176.666667
 13
2093.093691
 23
396.354147
 33
-1166.666667
  0
3DFACE
  8
I-UNIT
  5
3E7
 10
1693.093691
 20
440.104147
 30
-1166.666667
 11
1693.093691
 21
440.104147
 31
-1176.666667
 12
2093.093691
 22
440.104147
 32
-1176.666667
 13
2093.093691
 23
440.104147
 33
-1166.666667
  0
3DFACE
  8
I-UNIT
  5
3E9
 10
1693.093691
 20
483.854147
 30
-1166.666667
 11
1693.093691
 21
483.854147
 31
-1176.666667
 12
2093.093691
 22
483.854147
 32
-1176.666667
 13
2093.093691
 23
483.854147
 33
-1166.666667
  0
3DFACE
  8
I-UNIT
  5
3EB
 10
1693.093691
 20
527.604147
 30
-1166.666667
 11
1693.093691
 21
527.604147
 31
-1176.666667
 12
2093.093691
 22
527.604147
 32
-1176.666667
 13
2093.093691
 23
527.604147
 33
-1166.666667
  0
3DFACE
  8
I-UNIT
  5
3ED
 10
1693.093691
 20
571.354147
 30
-1166.666667
 11
1693.093691
 21
571.354147
 31
-1176.666667
 12
2093.093691
 22
571.354147
 32
-1176.666667
 13
2093.093691
 23
571.354147
 33
-1166.666667
  0
3DFACE
  8
I-UNIT
  5
3EF
 10
1693.093691
 20
615.104147
 30
-1166.666667
 11
1693.093691
 21
615.104147
 31
-1176.666667
 12
2093.093691
 22
615.104147
 32
-1176.666667
 13
2093.093691
 23
615.104147
 33
-1166.666667
  0
3DFACE
  8
I-UNIT
  5
3F0
 10
1693.093691
 20
636.979147
 30
-1166.666667
 11
1693.093691
 21
636.979147
 31
-1176.666667
 12
2093.093691
 22
636.979147
 32
-1176.666667
 13
2093.093691
 23
636.979147
 33
-1166.666667
  0
LINE
  8
I-UNIT
  5
3F2
 10
1663.093691
 20
658.854147
 30
-1156.666667
 11
2123.093691
 21
658.854147
 31
-1156.666667
210
0.0
220
-1.0
230
0.0
  0
POLYLINE
  8
I-UNIT
  5
3F4
 66
     1
 10
0.0
 20
0.0
 30
0.0
 70
    48
 71
     2
 72
     4
  0
VERTEX
  8
I-UNIT
  5
3F5
 10
1693.093691
 20
308.854147
 30
-1166.666667
 70
    64
  0
VERTEX
  8
I-UNIT
  5
3F6
 10
1703.093691
 20
308.854147
 30
-1166.666667
 70
    64
  0
VERTEX
  8
I-UNIT
  5
3F7
 10
1703.093691
 20
308.854147
 30
-1176.666667
 70
    64
  0
VERTEX
  8
I-UNIT
  5
3F8
 10
1693.093691
 20
308.854147
 30
-1176.666667
 70
    64
  0
VERTEX
  8
I-UNIT
  5
3F9
 10
1693.093691
 20
658.854147
 30
-1166.666667
 70
    64
  0
VERTEX
  8
I-UNIT
  5
3FA
 10
1703.093691
 20
658.854147
 30
-1166.666667
 70
    64
  0
VERTEX
  8
I-UNIT
  5
3FB
 10
1703.093691
 20
658.854147
 30
-1176.666667
 70
    64
  0
VERTEX
  8
I-UNIT
  5
3FC
 10
1693.093691
 20
658.854147
 30
-1176.666667
 70
    64
  0
SEQEND
  8
I-UNIT
  5
3FD
  0
POLYLINE
  8
I-UNIT
  5
3FE
 66
     1
 10
0.0
 20
0.0
 30
0.0
 70
    48
 71
     2
 72
     4
  0
VERTEX
  8
I-UNIT
  5
3FF
 10
1663.093691
 20
658.854147
 30
-1156.666667
 70
    64
  0
VERTEX
  8
I-UNIT
  5
400
 10
1663.093691
 20
648.854147
 30
-1156.666667
 70
    64
  0
VERTEX
  8
I-UNIT
  5
401
 10
1663.093691
 20
648.854147
 30
-1166.666667
 70
    64
  0
VERTEX
  8
I-UNIT
  5
402
 10
1663.093691
 20
658.854147
 30
-1166.666667
 70
    64
  0
VERTEX
  8
I-UNIT
  5
403
 10
2123.093691
 20
658.854147
 30
-1156.666667
 70
    64
  0
VERTEX
  8
I-UNIT
  5
404
 10
2123.093691
 20
648.854147
 30
-1156.666667
 70
    64
  0
VERTEX
  8
I-UNIT
  5
405
 10
2123.093691
 20
648.854147
 30
-1166.666667
 70
    64
  0
VERTEX
  8
I-UNIT
  5
406
 10
2123.093691
 20
658.854147
 30
-1166.666667
 70
    64
  0
SEQEND
  8
I-UNIT
  5
407
  0
POLYLINE
  8
I-UNIT
  5
408
 66
     1
 10
0.0
 20
0.0
 30
0.0
 70
    48
 71
     2
 72
     4
  0
VERTEX
  8
I-UNIT
  5
409
 10
1663.093691
 20
658.854147
 30
-1176.666667
 70
    64
  0
VERTEX
  8
I-UNIT
  5
40A
 10
1663.093691
 20
648.854147
 30
-1176.666667
 70
    64
  0
VERTEX
  8
I-UNIT
  5
40B
 10
1663.093691
 20
648.854147
 30
-1186.666667
 70
    64
  0
VERTEX
  8
I-UNIT
  5
40C
 10
1663.093691
 20
658.854147
 30
-1186.666667
 70
    64
  0
VERTEX
  8
I-UNIT
  5
40D
 10
2123.093691
 20
658.854147
 30
-1176.666667
 70
    64
  0
VERTEX
  8
I-UNIT
  5
40E
 10
2123.093691
 20
648.854147
 30
-1176.666667
 70
    64
  0
VERTEX
  8
I-UNIT
  5
40F
 10
2123.093691
 20
648.854147
 30
-1186.666667
 70
    64
  0
VERTEX
  8
I-UNIT
  5
410
 10
2123.093691
 20
658.854147
 30
-1186.666667
 70
    64
  0
SEQEND
  8
I-UNIT
  5
411
  0
POLYLINE
  8
I-UNIT
  5
412
 66
     1
 10
0.0
 20
0.0
 30
0.0
 70
    48
 71
     2
 72
     4
  0
VERTEX
  8
I-UNIT
  5
413
 10
1663.093691
 20
318.854147
 30
-1156.666667
 70
    64
  0
VERTEX
  8
I-UNIT
  5
414
 10
1663.093691
 20
308.854147
 30
-1156.666667
 70
    64
  0
VERTEX
  8
I-UNIT
  5
415
 10
1663.093691
 20
308.854147
 30
-1166.666667
 70
    64
  0
VERTEX
  8
I-UNIT
  5
416
 10
1663.093691
 20
318.854147
 30
-1166.666667
 70
    64
  0
VERTEX
  8
I-UNIT
  5
417
 10
2123.093691
 20
318.854147
 30
-1156.666667
 70
    64
  0
VERTEX
  8
I-UNIT
  5
418
 10
2123.093691
 20
308.854147
 30
-1156.666667
 70
    64
  0
VERTEX
  8
I-UNIT
  5
419
 10
2123.093691
 20
308.854147
 30
-1166.666667
 70
    64
  0
VERTEX
  8
I-UNIT
  5
41A
 10
2123.093691
 20
318.854147
 30
-1166.666667
 70
    64
  0
SEQEND
  8
I-UNIT
  5
41B
  0
POLYLINE
  8
I-UNIT
  5
41C
 66
     1
 10
0.0
 20
0.0
 30
0.0
 70
    48
 71
     2
 72
     4
  0
VERTEX
  8
I-UNIT
  5
41D
 10
1663.093691
 20
318.854147
 30
-1176.666667
 70
    64
  0
VERTEX
  8
I-UNIT
  5
41E
 10
1663.093691
 20
308.854147
 30
-1176.666667
 70
    64
  0
VERTEX
  8
I-UNIT
  5
41F
 10
1663.093691
 20
308.854147
 30
-1186.666667
 70
    64
  0
VERTEX
  8
I-UNIT
  5
420
 10
1663.093691
 20
318.854147
 30
-1186.666667
 70
    64
  0
VERTEX
  8
I-UNIT
  5
421
 10
2123.093691
 20
318.854147
 30
-1176.666667
 70
    64
  0
VERTEX
  8
I-UNIT
  5
422
 10
2123.093691
 20
308.854147
 30
-1176.666667
 70
    64
  0
VERTEX
  8
I-UNIT
  5
423
 10
2123.093691
 20
308.854147
 30
-1186.666667
 70
    64
  0
VERTEX
  8
I-UNIT
  5
424
 10
2123.093691
 20
318.854147
 30
-1186.666667
 70
    64
  0
SEQEND
  8
I-UNIT
  5
425
  0
POLYLINE
  8
I-UNIT
  5
426
 66
     1
 10
0.0
 20
0.0
 30
0.0
 70
    48
 71
     2
 72
     4
  0
VERTEX
  8
I-UNIT
  5
427
 10
1888.093691
 20
308.854147
 30
-1166.666667
 70
    64
  0
VERTEX
  8
I-UNIT
  5
428
 10
1898.093691
 20
308.854147
 30
-1166.666667
 70
    64
  0
VERTEX
  8
I-UNIT
  5
429
 10
1898.093691
 20
308.854147
 30
-1176.666667
 70
    64
  0
VERTEX
  8
I-UNIT
  5
42A
 10
1888.093691
 20
308.854147
 30
-1176.666667
 70
    64
  0
VERTEX
  8
I-UNIT
  5
42B
 10
1888.093691
 20
658.854147
 30
-1166.666667
 70
    64
  0
VERTEX
  8
I-UNIT
  5
42C
 10
1898.093691
 20
658.854147
 30
-1166.666667
 70
    64
  0
VERTEX
  8
I-UNIT
  5
42D
 10
1898.093691
 20
658.854147
 30
-1176.666667
 70
    64
  0
VERTEX
  8
I-UNIT
  5
42E
 10
1888.093691
 20
658.854147
 30
-1176.666667
 70
    64
  0
SEQEND
  8
I-UNIT
  5
42F
  0
POLYLINE
  8
I-UNIT
  5
430
 66
     1
 10
0.0
 20
0.0
 30
0.0
 70
    48
 71
     2
 72
     4
  0
VERTEX
  8
I-UNIT
  5
431
 10
2093.093691
 20
308.854147
 30
-1166.666667
 70
    64
  0
VERTEX
  8
I-UNIT
  5
432
 10
2103.093691
 20
308.854147
 30
-1166.666667
 70
    64
  0
VERTEX
  8
I-UNIT
  5
433
 10
2103.093691
 20
308.854147
 30
-1176.666667
 70
    64
  0
VERTEX
  8
I-UNIT
  5
434
 10
2093.093691
 20
308.854147
 30
-1176.666667
 70
    64
  0
VERTEX
  8
I-UNIT
  5
435
 10
2093.093691
 20
658.854147
 30
-1166.666667
 70
    64
  0
VERTEX
  8
I-UNIT
  5
436
 10
2103.093691
 20
658.854147
 30
-1166.666667
 70
    64
  0
VERTEX
  8
I-UNIT
  5
437
 10
2103.093691
 20
658.854147
 30
-1176.666667
 70
    64
  0
VERTEX
  8
I-UNIT
  5
438
 10
2093.093691
 20
658.854147
 30
-1176.666667
 70
    64
  0
SEQEND
  8
I-UNIT
  5
439
  0
POLYLINE
  8
I-UNIT
  5
43A
 66
     1
 10
0.0
 20
0.0
 30
0.0
 70
    48
 71
     2
 72
     4
  0
VERTEX
  8
I-UNIT
  5
43B
 10
843.093691
 20
658.854147
 30
-156.666667
 70
    64
  0
VERTEX
  8
I-UNIT
  5
43C
 10
843.093691
 20
648.854147
 30
-156.666667
 70
    64
  0
VERTEX
  8
I-UNIT
  5
43D
 10
843.093691
 20
648.854147
 30
-166.666667
 70
    64
  0
VERTEX
  8
I-UNIT
  5
43E
 10
843.093691
 20
658.854147
 30
-166.666667
 70
    64
  0
VERTEX
  8
I-UNIT
  5
43F
 10
1703.093691
 20
658.854147
 30
-156.666667
 70
    64
  0
VERTEX
  8
I-UNIT
  5
440
 10
1703.093691
 20
648.854147
 30
-156.666667
 70
    64
  0
VERTEX
  8
I-UNIT
  5
441
 10
1703.093691
 20
648.854147
 30
-166.666667
 70
    64
  0
VERTEX
  8
I-UNIT
  5
442
 10
1703.093691
 20
658.854147
 30
-166.666667
 70
    64
  0
SEQEND
  8
I-UNIT
  5
443
  0
POLYLINE
  8
I-UNIT
  5
444
 66
     1
 10
0.0
 20
0.0
 30
0.0
 70
    48
 71
     2
 72
     4
  0
VERTEX
  8
I-UNIT
  5
445
 10
843.093691
 20
658.854147
 30
-176.666667
 70
    64
  0
VERTEX
  8
I-UNIT
  5
446
 10
843.093691
 20
648.854147
 30
-176.666667
 70
    64
  0
VERTEX
  8
I-UNIT
  5
447
 10
843.093691
 20
648.854147
 30
-186.666667
 70
    64
  0
VERTEX
  8
I-UNIT
  5
448
 10
843.093691
 20
658.854147
 30
-186.666667
 70
    64
  0
VERTEX
  8
I-UNIT
  5
449
 10
1703.093691
 20
658.854147
 30
-176.666667
 70
    64
  0
VERTEX
  8
I-UNIT
  5
44A
 10
1703.093691
 20
648.854147
 30
-176.666667
 70
    64
  0
VERTEX
  8
I-UNIT
  5
44B
 10
1703.093691
 20
648.854147
 30
-186.666667
 70
    64
  0
VERTEX
  8
I-UNIT
  5
44C
 10
1703.093691
 20
658.854147
 30
-186.666667
 70
    64
  0
SEQEND
  8
I-UNIT
  5
44D
  0
POLYLINE
  8
I-UNIT
  5
44E
 66
     1
 10
0.0
 20
0.0
 30
0.0
 70
    48
 71
     2
 72
     4
  0
VERTEX
  8
I-UNIT
  5
44F
 10
843.093691
 20
318.854147
 30
-156.666667
 70
    64
  0
VERTEX
  8
I-UNIT
  5
450
 10
843.093691
 20
308.854147
 30
-156.666667
 70
    64
  0
VERTEX
  8
I-UNIT
  5
451
 10
843.093691
 20
308.854147
 30
-166.666667
 70
    64
  0
VERTEX
  8
I-UNIT
  5
452
 10
843.093691
 20
318.854147
 30
-166.666667
 70
    64
  0
VERTEX
  8
I-UNIT
  5
453
 10
1703.093691
 20
318.854147
 30
-156.666667
 70
    64
  0
VERTEX
  8
I-UNIT
  5
454
 10
1703.093691
 20
308.854147
 30
-156.666667
 70
    64
  0
VERTEX
  8
I-UNIT
  5
455
 10
1703.093691
 20
308.854147
 30
-166.666667
 70
    64
  0
VERTEX
  8
I-UNIT
  5
456
 10
1703.093691
 20
318.854147
 30
-166.666667
 70
    64
  0
SEQEND
  8
I-UNIT
  5
457
  0
POLYLINE
  8
I-UNIT
  5
458
 66
     1
 10
0.0
 20
0.0
 30
0.0
 70
    48
 71
     2
 72
     4
  0
VERTEX
  8
I-UNIT
  5
459
 10
843.093691
 20
318.854147
 30
-176.666667
 70
    64
  0
VERTEX
  8
I-UNIT
  5
45A
 10
843.093691
 20
308.854147
 30
-176.666667
 70
    64
  0
VERTEX
  8
I-UNIT
  5
45B
 10
843.093691
 20
308.854147
 30
-186.666667
 70
    64
  0
VERTEX
  8
I-UNIT
  5
45C
 10
843.093691
 20
318.854147
 30
-186.666667
 70
    64
  0
VERTEX
  8
I-UNIT
  5
45D
 10
1703.093691
 20
318.854147
 30
-176.666667
 70
    64
  0
VERTEX
  8
I-UNIT
  5
45E
 10
1703.093691
 20
308.854147
 30
-176.666667
 70
    64
  0
VERTEX
  8
I-UNIT
  5
45F
 10
1703.093691
 20
308.854147
 30
-186.666667
 70
    64
  0
VERTEX
  8
I-UNIT
  5
460
 10
1703.093691
 20
318.854147
 30
-186.666667
 70
    64
  0
SEQEND
  8
I-UNIT
  5
461
  0
POLYLINE
  8
I-UNIT
  5
462
 66
     1
 10
0.0
 20
0.0
 30
0.0
 70
    48
 71
     2
 72
     4
  0
VERTEX
  8
I-UNIT
  5
463
 10
1673.093691
 20
308.854147
 30
-176.666667
 70
    64
  0
VERTEX
  8
I-UNIT
  5
464
 10
1673.093691
 20
308.854147
 30
-166.666667
 70
    64
  0
VERTEX
  8
I-UNIT
  5
465
 10
1663.093691
 20
308.854147
 30
-166.666667
 70
    64
  0
VERTEX
  8
I-UNIT
  5
466
 10
1663.093691
 20
308.854147
 30
-176.666667
 70
    64
  0
VERTEX
  8
I-UNIT
  5
467
 10
1673.093691
 20
658.854147
 30
-176.666667
 70
    64
  0
VERTEX
  8
I-UNIT
  5
468
 10
1673.093691
 20
658.854147
 30
-166.666667
 70
    64
  0
VERTEX
  8
I-UNIT
  5
469
 10
1663.093691
 20
658.854147
 30
-166.666667
 70
    64
  0
VERTEX
  8
I-UNIT
  5
46A
 10
1663.093691
 20
658.854147
 30
-176.666667
 70
    64
  0
SEQEND
  8
I-UNIT
  5
46B
  0
3DFACE
  8
I-UNIT
  5
51B
 10
883.093691
 20
328.854147
 30
-666.666667
 11
883.093691
 21
328.854147
 31
-676.666667
 12
1673.093691
 22
328.854147
 32
-676.666667
 13
1673.093691
 23
328.854147
 33
-666.666667
  0
3DFACE
  8
I-UNIT
  5
51C
 10
883.093691
 20
348.229147
 30
-666.666667
 11
883.093691
 21
348.229147
 31
-676.666667
 12
1673.093691
 22
348.229147
 32
-676.666667
 13
1673.093691
 23
348.229147
 33
-666.666667
  0
3DFACE
  8
I-UNIT
  5
51E
 10
883.093691
 20
386.979147
 30
-666.666667
 11
883.093691
 21
386.979147
 31
-676.666667
 12
1673.093691
 22
386.979147
 32
-676.666667
 13
1673.093691
 23
386.979147
 33
-666.666667
  0
3DFACE
  8
I-UNIT
  5
520
 10
883.093691
 20
425.729147
 30
-666.666667
 11
883.093691
 21
425.729147
 31
-676.666667
 12
1673.093691
 22
425.729147
 32
-676.666667
 13
1673.093691
 23
425.729147
 33
-666.666667
  0
3DFACE
  8
I-UNIT
  5
522
 10
883.093691
 20
464.479147
 30
-666.666667
 11
883.093691
 21
464.479147
 31
-676.666667
 12
1673.093691
 22
464.479147
 32
-676.666667
 13
1673.093691
 23
464.479147
 33
-666.666667
  0
3DFACE
  8
I-UNIT
  5
524
 10
883.093691
 20
503.229147
 30
-666.666667
 11
883.093691
 21
503.229147
 31
-676.666667
 12
1673.093691
 22
503.229147
 32
-676.666667
 13
1673.093691
 23
503.229147
 33
-666.666667
  0
3DFACE
  8
I-UNIT
  5
526
 10
883.093691
 20
541.979147
 30
-666.666667
 11
883.093691
 21
541.979147
 31
-676.666667
 12
1673.093691
 22
541.979147
 32
-676.666667
 13
1673.093691
 23
541.979147
 33
-666.666667
  0
3DFACE
  8
I-UNIT
  5
528
 10
883.093691
 20
580.729147
 30
-666.666667
 11
883.093691
 21
580.729147
 31
-676.666667
 12
1673.093691
 22
580.729147
 32
-676.666667
 13
1673.093691
 23
580.729147
 33
-666.666667
  0
3DFACE
  8
I-UNIT
  5
52A
 10
883.093691
 20
619.479147
 30
-666.666667
 11
883.093691
 21
619.479147
 31
-676.666667
 12
1673.093691
 22
619.479147
 32
-676.666667
 13
1673.093691
 23
619.479147
 33
-666.666667
  0
3DFACE
  8
I-UNIT
  5
52B
 10
883.093691
 20
638.854147
 30
-666.666667
 11
883.093691
 21
638.854147
 31
-676.666667
 12
1673.093691
 22
638.854147
 32
-676.666667
 13
1673.093691
 23
638.854147
 33
-666.666667
  0
POLYLINE
  8
I-UNIT
  5
52C
 66
     1
 10
0.0
 20
0.0
 30
0.0
 70
    48
 71
     2
 72
     4
  0
VERTEX
  8
I-UNIT
  5
52D
 10
843.093691
 20
658.854147
 30
-676.666667
 70
    64
  0
VERTEX
  8
I-UNIT
  5
52E
 10
843.093691
 20
648.854147
 30
-676.666667
 70
    64
  0
VERTEX
  8
I-UNIT
  5
52F
 10
843.093691
 20
648.854147
 30
-686.666667
 70
    64
  0
VERTEX
  8
I-UNIT
  5
530
 10
843.093691
 20
658.854147
 30
-686.666667
 70
    64
  0
VERTEX
  8
I-UNIT
  5
531
 10
1703.093691
 20
658.854147
 30
-676.666667
 70
    64
  0
VERTEX
  8
I-UNIT
  5
532
 10
1703.093691
 20
648.854147
 30
-676.666667
 70
    64
  0
VERTEX
  8
I-UNIT
  5
533
 10
1703.093691
 20
648.854147
 30
-686.666667
 70
    64
  0
VERTEX
  8
I-UNIT
  5
534
 10
1703.093691
 20
658.854147
 30
-686.666667
 70
    64
  0
SEQEND
  8
I-UNIT
  5
535
  0
LINE
  8
I-UNIT
  5
536
 10
883.093691
 20
328.854147
 30
-676.666667
 11
1673.093691
 21
328.854147
 31
-676.666667
210
0.0
220
-1.0
230
0.0
  0
POLYLINE
  8
I-UNIT
  5
537
 66
     1
 10
0.0
 20
0.0
 30
0.0
 70
    48
 71
     2
 72
     4
  0
VERTEX
  8
I-UNIT
  5
538
 10
843.093691
 20
658.854147
 30
-656.666667
 70
    64
  0
VERTEX
  8
I-UNIT
  5
539
 10
843.093691
 20
648.854147
 30
-656.666667
 70
    64
  0
VERTEX
  8
I-UNIT
  5
53A
 10
843.093691
 20
648.854147
 30
-666.666667
 70
    64
  0
VERTEX
  8
I-UNIT
  5
53B
 10
843.093691
 20
658.854147
 30
-666.666667
 70
    64
  0
VERTEX
  8
I-UNIT
  5
53C
 10
1703.093691
 20
658.854147
 30
-656.666667
 70
    64
  0
VERTEX
  8
I-UNIT
  5
53D
 10
1703.093691
 20
648.854147
 30
-656.666667
 70
    64
  0
VERTEX
  8
I-UNIT
  5
53E
 10
1703.093691
 20
648.854147
 30
-666.666667
 70
    64
  0
VERTEX
  8
I-UNIT
  5
53F
 10
1703.093691
 20
658.854147
 30
-666.666667
 70
    64
  0
SEQEND
  8
I-UNIT
  5
540
  0
LINE
  8
I-UNIT
  5
541
 10
1673.093691
 20
328.854147
 30
-666.666667
 11
883.093691
 21
328.854147
 31
-666.666667
210
0.0
220
-1.0
230
0.0
  0
LINE
  8
I-UNIT
  5
542
 10
843.093691
 20
658.854147
 30
-656.666667
 11
1703.093691
 21
658.854147
 31
-656.666667
  0
POLYLINE
  8
I-UNIT
  5
543
 66
     1
 10
0.0
 20
0.0
 30
0.0
 70
    48
 71
     2
 72
     4
  0
VERTEX
  8
I-UNIT
  5
544
 10
843.093691
 20
318.854147
 30
-676.666667
 70
    64
  0
VERTEX
  8
I-UNIT
  5
545
 10
843.093691
 20
308.854147
 30
-676.666667
 70
    64
  0
VERTEX
  8
I-UNIT
  5
546
 10
843.093691
 20
308.854147
 30
-686.666667
 70
    64
  0
VERTEX
  8
I-UNIT
  5
547
 10
843.093691
 20
318.854147
 30
-686.666667
 70
    64
  0
VERTEX
  8
I-UNIT
  5
548
 10
1703.093691
 20
318.854147
 30
-676.666667
 70
    64
  0
VERTEX
  8
I-UNIT
  5
549
 10
1703.093691
 20
308.854147
 30
-676.666667
 70
    64
  0
VERTEX
  8
I-UNIT
  5
54A
 10
1703.093691
 20
308.854147
 30
-686.666667
 70
    64
  0
VERTEX
  8
I-UNIT
  5
54B
 10
1703.093691
 20
318.854147
 30
-686.666667
 70
    64
  0
SEQEND
  8
I-UNIT
  5
54C
  0
POLYLINE
  8
I-UNIT
  5
54D
 66
     1
 10
0.0
 20
0.0
 30
0.0
 70
    48
 71
     2
 72
     4
  0
VERTEX
  8
I-UNIT
  5
54E
 10
843.093691
 20
318.854147
 30
-656.666667
 70
    64
  0
VERTEX
  8
I-UNIT
  5
54F
 10
843.093691
 20
308.854147
 30
-656.666667
 70
    64
  0
VERTEX
  8
I-UNIT
  5
550
 10
843.093691
 20
308.854147
 30
-666.666667
 70
    64
  0
VERTEX
  8
I-UNIT
  5
551
 10
843.093691
 20
318.854147
 30
-666.666667
 70
    64
  0
VERTEX
  8
I-UNIT
  5
552
 10
1703.093691
 20
318.854147
 30
-656.666667
 70
    64
  0
VERTEX
  8
I-UNIT
  5
553
 10
1703.093691
 20
308.854147
 30
-656.666667
 70
    64
  0
VERTEX
  8
I-UNIT
  5
554
 10
1703.093691
 20
308.854147
 30
-666.666667
 70
    64
  0
VERTEX
  8
I-UNIT
  5
555
 10
1703.093691
 20
318.854147
 30
-666.666667
 70
    64
  0
SEQEND
  8
I-UNIT
  5
556
  0
LINE
  8
I-UNIT
  5
557
 10
883.093691
 20
328.854147
 30
-676.666667
 11
883.093691
 21
638.854147
 31
-676.666667
  0
POLYLINE
  8
I-UNIT
  5
558
 66
     1
 10
0.0
 20
0.0
 30
0.0
 70
    48
 71
     2
 72
     4
  0
VERTEX
  8
I-UNIT
  5
559
 10
883.093691
 20
308.854147
 30
-676.666667
 70
    64
  0
VERTEX
  8
I-UNIT
  5
55A
 10
883.093691
 20
308.854147
 30
-666.666667
 70
    64
  0
VERTEX
  8
I-UNIT
  5
55B
 10
873.093691
 20
308.854147
 30
-666.666667
 70
    64
  0
VERTEX
  8
I-UNIT
  5
55C
 10
873.093691
 20
308.854147
 30
-676.666667
 70
    64
  0
VERTEX
  8
I-UNIT
  5
55D
 10
883.093691
 20
658.854147
 30
-676.666667
 70
    64
  0
VERTEX
  8
I-UNIT
  5
55E
 10
883.093691
 20
658.854147
 30
-666.666667
 70
    64
  0
VERTEX
  8
I-UNIT
  5
55F
 10
873.093691
 20
658.854147
 30
-666.666667
 70
    64
  0
VERTEX
  8
I-UNIT
  5
560
 10
873.093691
 20
658.854147
 30
-676.666667
 70
    64
  0
SEQEND
  8
I-UNIT
  5
561
  0
LINE
  8
I-UNIT
  5
562
 10
873.093691
 20
658.854147
 30
-666.666667
 11
873.093691
 21
308.854147
 31
-666.666667
  0
POLYLINE
  8
I-UNIT
  5
563
 66
     1
 10
0.0
 20
0.0
 30
-843.093691
 70
     1
210
-1.0
220
0.0
230
0.0
  0
VERTEX
  8
I-UNIT
  5
564
 10
-318.854147
 20
-666.666667
 30
-843.093691
  0
VERTEX
  8
I-UNIT
  5
565
 10
-318.854147
 20
-656.666667
 30
-843.093691
  0
VERTEX
  8
I-UNIT
  5
566
 10
-308.854147
 20
-656.666667
 30
-843.093691
  0
VERTEX
  8
I-UNIT
  5
567
 10
-308.854147
 20
-666.666667
 30
-843.093691
  0
SEQEND
  8
I-UNIT
  5
568
  0
POLYLINE
  8
I-UNIT
  5
569
 66
     1
 10
0.0
 20
0.0
 30
-843.093691
 70
     1
210
-1.0
220
0.0
230
0.0
  0
VERTEX
  8
I-UNIT
  5
56A
 10
-318.854147
 20
-686.666667
 30
-843.093691
  0
VERTEX
  8
I-UNIT
  5
56B
 10
-318.854147
 20
-676.666667
 30
-843.093691
  0
VERTEX
  8
I-UNIT
  5
56C
 10
-308.854147
 20
-676.666667
 30
-843.093691
  0
VERTEX
  8
I-UNIT
  5
56D
 10
-308.854147
 20
-686.666667
 30
-843.093691
  0
SEQEND
  8
I-UNIT
  5
56E
  0
POLYLINE
  8
I-UNIT
  5
56F
 66
     1
 10
0.0
 20
0.0
 30
-308.854147
 70
     1
210
0.0
220
-1.0
230
0.0
  0
VERTEX
  8
I-UNIT
  5
570
 10
873.093691
 20
-676.666667
 30
-308.854147
  0
VERTEX
  8
I-UNIT
  5
571
 10
873.093691
 20
-666.666667
 30
-308.854147
  0
VERTEX
  8
I-UNIT
  5
572
 10
883.093691
 20
-666.666667
 30
-308.854147
  0
VERTEX
  8
I-UNIT
  5
573
 10
883.093691
 20
-676.666667
 30
-308.854147
  0
SEQEND
  8
I-UNIT
  5
574
  0
LINE
  8
I-UNIT
  5
575
 10
883.093691
 20
328.854147
 30
-666.666667
 11
883.093691
 21
328.854147
 31
-676.666667
210
0.0
220
-1.0
230
0.0
  0
POLYLINE
  8
I-UNIT
  5
576
 66
     1
 10
0.0
 20
0.0
 30
-843.093691
 70
     1
210
-1.0
220
0.0
230
0.0
  0
VERTEX
  8
I-UNIT
  5
577
 10
-658.854147
 20
-666.666667
 30
-843.093691
  0
VERTEX
  8
I-UNIT
  5
578
 10
-658.854147
 20
-656.666667
 30
-843.093691
  0
VERTEX
  8
I-UNIT
  5
579
 10
-648.854147
 20
-656.666667
 30
-843.093691
  0
VERTEX
  8
I-UNIT
  5
57A
 10
-648.854147
 20
-666.666667
 30
-843.093691
  0
SEQEND
  8
I-UNIT
  5
57B
  0
POLYLINE
  8
I-UNIT
  5
57C
 66
     1
 10
0.0
 20
0.0
 30
-843.093691
 70
     1
210
-1.0
220
0.0
230
0.0
  0
VERTEX
  8
I-UNIT
  5
57D
 10
-658.854147
 20
-686.666667
 30
-843.093691
  0
VERTEX
  8
I-UNIT
  5
57E
 10
-658.854147
 20
-676.666667
 30
-843.093691
  0
VERTEX
  8
I-UNIT
  5
57F
 10
-648.854147
 20
-676.666667
 30
-843.093691
  0
VERTEX
  8
I-UNIT
  5
580
 10
-648.854147
 20
-686.666667
 30
-843.093691
  0
SEQEND
  8
I-UNIT
  5
581
  0
POLYLINE
  8
I-UNIT
  5
582
 66
     1
 10
0.0
 20
0.0
 30
658.854147
 70
     1
210
0.0
220
1.0
230
0.0
  0
VERTEX
  8
I-UNIT
  5
583
 10
-873.093691
 20
-676.666667
 30
658.854147
  0
VERTEX
  8
I-UNIT
  5
584
 10
-873.093691
 20
-666.666667
 30
658.854147
  0
VERTEX
  8
I-UNIT
  5
585
 10
-883.093691
 20
-666.666667
 30
658.854147
  0
VERTEX
  8
I-UNIT
  5
586
 10
-883.093691
 20
-676.666667
 30
658.854147
  0
SEQEND
  8
I-UNIT
  5
587
  0
POLYLINE
  8
I-UNIT
  5
588
 66
     1
 10
0.0
 20
0.0
 30
0.0
 70
    48
 71
     2
 72
     4
  0
VERTEX
  8
I-UNIT
  5
589
 10
1078.093691
 20
308.854147
 30
-676.666667
 70
    64
  0
VERTEX
  8
I-UNIT
  5
58A
 10
1078.093691
 20
308.854147
 30
-666.666667
 70
    64
  0
VERTEX
  8
I-UNIT
  5
58B
 10
1068.093691
 20
308.854147
 30
-666.666667
 70
    64
  0
VERTEX
  8
I-UNIT
  5
58C
 10
1068.093691
 20
308.854147
 30
-676.666667
 70
    64
  0
VERTEX
  8
I-UNIT
  5
58D
 10
1078.093691
 20
658.854147
 30
-676.666667
 70
    64
  0
VERTEX
  8
I-UNIT
  5
58E
 10
1078.093691
 20
658.854147
 30
-666.666667
 70
    64
  0
VERTEX
  8
I-UNIT
  5
58F
 10
1068.093691
 20
658.854147
 30
-666.666667
 70
    64
  0
VERTEX
  8
I-UNIT
  5
590
 10
1068.093691
 20
658.854147
 30
-676.666667
 70
    64
  0
SEQEND
  8
I-UNIT
  5
591
  0
POLYLINE
  8
I-UNIT
  5
592
 66
     1
 10
0.0
 20
0.0
 30
0.0
 70
    48
 71
     2
 72
     4
  0
VERTEX
  8
I-UNIT
  5
593
 10
1278.093691
 20
308.854147
 30
-676.666667
 70
    64
  0
VERTEX
  8
I-UNIT
  5
594
 10
1278.093691
 20
308.854147
 30
-666.666667
 70
    64
  0
VERTEX
  8
I-UNIT
  5
595
 10
1268.093691
 20
308.854147
 30
-666.666667
 70
    64
  0
VERTEX
  8
I-UNIT
  5
596
 10
1268.093691
 20
308.854147
 30
-676.666667
 70
    64
  0
VERTEX
  8
I-UNIT
  5
597
 10
1278.093691
 20
658.854147
 30
-676.666667
 70
    64
  0
VERTEX
  8
I-UNIT
  5
598
 10
1278.093691
 20
658.854147
 30
-666.666667
 70
    64
  0
VERTEX
  8
I-UNIT
  5
599
 10
1268.093691
 20
658.854147
 30
-666.666667
 70
    64
  0
VERTEX
  8
I-UNIT
  5
59A
 10
1268.093691
 20
658.854147
 30
-676.666667
 70
    64
  0
SEQEND
  8
I-UNIT
  5
59B
  0
POLYLINE
  8
I-UNIT
  5
59C
 66
     1
 10
0.0
 20
0.0
 30
-308.854147
 70
     1
210
0.0
220
-1.0
230
0.0
  0
VERTEX
  8
I-UNIT
  5
59D
 10
1068.093691
 20
-676.666667
 30
-308.854147
  0
VERTEX
  8
I-UNIT
  5
59E
 10
1068.093691
 20
-666.666667
 30
-308.854147
  0
VERTEX
  8
I-UNIT
  5
59F
 10
1078.093691
 20
-666.666667
 30
-308.854147
  0
VERTEX
  8
I-UNIT
  5
5A0
 10
1078.093691
 20
-676.666667
 30
-308.854147
  0
SEQEND
  8
I-UNIT
  5
5A1
  0
POLYLINE
  8
I-UNIT
  5
5A2
 66
     1
 10
0.0
 20
0.0
 30
-308.854147
 70
     1
210
0.0
220
-1.0
230
0.0
  0
VERTEX
  8
I-UNIT
  5
5A3
 10
1268.093691
 20
-676.666667
 30
-308.854147
  0
VERTEX
  8
I-UNIT
  5
5A4
 10
1268.093691
 20
-666.666667
 30
-308.854147
  0
VERTEX
  8
I-UNIT
  5
5A5
 10
1278.093691
 20
-666.666667
 30
-308.854147
  0
VERTEX
  8
I-UNIT
  5
5A6
 10
1278.093691
 20
-676.666667
 30
-308.854147
  0
SEQEND
  8
I-UNIT
  5
5A7
  0
LINE
  8
I-UNIT
  5
5A8
 10
1673.093691
 20
328.854147
 30
-666.666667
 11
1673.093691
 21
638.854147
 31
-666.666667
  0
POLYLINE
  8
I-UNIT
  5
5A9
 66
     1
 10
0.0
 20
0.0
 30
0.0
 70
    48
 71
     2
 72
     4
  0
VERTEX
  8
I-UNIT
  5
5AA
 10
1478.093691
 20
308.854147
 30
-676.666667
 70
    64
  0
VERTEX
  8
I-UNIT
  5
5AB
 10
1478.093691
 20
308.854147
 30
-666.666667
 70
    64
  0
VERTEX
  8
I-UNIT
  5
5AC
 10
1468.093691
 20
308.854147
 30
-666.666667
 70
    64
  0
VERTEX
  8
I-UNIT
  5
5AD
 10
1468.093691
 20
308.854147
 30
-676.666667
 70
    64
  0
VERTEX
  8
I-UNIT
  5
5AE
 10
1478.093691
 20
658.854147
 30
-676.666667
 70
    64
  0
VERTEX
  8
I-UNIT
  5
5AF
 10
1478.093691
 20
658.854147
 30
-666.666667
 70
    64
  0
VERTEX
  8
I-UNIT
  5
5B0
 10
1468.093691
 20
658.854147
 30
-666.666667
 70
    64
  0
VERTEX
  8
I-UNIT
  5
5B1
 10
1468.093691
 20
658.854147
 30
-676.666667
 70
    64
  0
SEQEND
  8
I-UNIT
  5
5B2
  0
POLYLINE
  8
I-UNIT
  5
5B3
 66
     1
 10
0.0
 20
0.0
 30
0.0
 70
    48
 71
     2
 72
     4
  0
VERTEX
  8
I-UNIT
  5
5B4
 10
1673.093691
 20
308.854147
 30
-676.666667
 70
    64
  0
VERTEX
  8
I-UNIT
  5
5B5
 10
1673.093691
 20
308.854147
 30
-666.666667
 70
    64
  0
VERTEX
  8
I-UNIT
  5
5B6
 10
1663.093691
 20
308.854147
 30
-666.666667
 70
    64
  0
VERTEX
  8
I-UNIT
  5
5B7
 10
1663.093691
 20
308.854147
 30
-676.666667
 70
    64
  0
VERTEX
  8
I-UNIT
  5
5B8
 10
1673.093691
 20
658.854147
 30
-676.666667
 70
    64
  0
VERTEX
  8
I-UNIT
  5
5B9
 10
1673.093691
 20
658.854147
 30
-666.666667
 70
    64
  0
VERTEX
  8
I-UNIT
  5
5BA
 10
1663.093691
 20
658.854147
 30
-666.666667
 70
    64
  0
VERTEX
  8
I-UNIT
  5
5BB
 10
1663.093691
 20
658.854147
 30
-676.666667
 70
    64
  0
SEQEND
  8
I-UNIT
  5
5BC
  0
POLYLINE
  8
I-UNIT
  5
5BD
 66
     1
 10
0.0
 20
0.0
 30
-308.854147
 70
     1
210
0.0
220
-1.0
230
0.0
  0
VERTEX
  8
I-UNIT
  5
5BE
 10
1468.093691
 20
-676.666667
 30
-308.854147
  0
VERTEX
  8
I-UNIT
  5
5BF
 10
1468.093691
 20
-666.666667
 30
-308.854147
  0
VERTEX
  8
I-UNIT
  5
5C0
 10
1478.093691
 20
-666.666667
 30
-308.854147
  0
VERTEX
  8
I-UNIT
  5
5C1
 10
1478.093691
 20
-676.666667
 30
-308.854147
  0
SEQEND
  8
I-UNIT
  5
5C2
  0
POLYLINE
  8
I-UNIT
  5
5C3
 66
     1
 10
0.0
 20
0.0
 30
-308.854147
 70
     1
210
0.0
220
-1.0
230
0.0
  0
VERTEX
  8
I-UNIT
  5
5C4
 10
1663.093691
 20
-676.666667
 30
-308.854147
  0
VERTEX
  8
I-UNIT
  5
5C5
 10
1663.093691
 20
-666.666667
 30
-308.854147
  0
VERTEX
  8
I-UNIT
  5
5C6
 10
1673.093691
 20
-666.666667
 30
-308.854147
  0
VERTEX
  8
I-UNIT
  5
5C7
 10
1673.093691
 20
-676.666667
 30
-308.854147
  0
SEQEND
  8
I-UNIT
  5
5C8
  0
LINE
  8
I-UNIT
  5
5C9
 10
1673.093691
 20
328.854147
 30
-676.666667
 11
1673.093691
 21
328.854147
 31
-666.666667
210
0.0
220
-1.0
230
0.0
  0
POLYLINE
  8
I-UNIT
  5
5CA
 66
     1
 10
0.0
 20
0.0
 30
0.0
 70
    48
 71
     2
 72
     4
  0
VERTEX
  8
I-UNIT
  5
5CB
 10
843.093691
 20
658.854147
 30
-1156.666667
 70
    64
  0
VERTEX
  8
I-UNIT
  5
5CC
 10
843.093691
 20
648.854147
 30
-1156.666667
 70
    64
  0
VERTEX
  8
I-UNIT
  5
5CD
 10
843.093691
 20
648.854147
 30
-1166.666667
 70
    64
  0
VERTEX
  8
I-UNIT
  5
5CE
 10
843.093691
 20
658.854147
 30
-1166.666667
 70
    64
  0
VERTEX
  8
I-UNIT
  5
5CF
 10
1703.093691
 20
658.854147
 30
-1156.666667
 70
    64
  0
VERTEX
  8
I-UNIT
  5
5D0
 10
1703.093691
 20
648.854147
 30
-1156.666667
 70
    64
  0
VERTEX
  8
I-UNIT
  5
5D1
 10
1703.093691
 20
648.854147
 30
-1166.666667
 70
    64
  0
VERTEX
  8
I-UNIT
  5
5D2
 10
1703.093691
 20
658.854147
 30
-1166.666667
 70
    64
  0
SEQEND
  8
I-UNIT
  5
5D3
  0
POLYLINE
  8
I-UNIT
  5
5D4
 66
     1
 10
0.0
 20
0.0
 30
0.0
 70
    48
 71
     2
 72
     4
  0
VERTEX
  8
I-UNIT
  5
5D5
 10
843.093691
 20
658.854147
 30
-1176.666667
 70
    64
  0
VERTEX
  8
I-UNIT
  5
5D6
 10
843.093691
 20
648.854147
 30
-1176.666667
 70
    64
  0
VERTEX
  8
I-UNIT
  5
5D7
 10
843.093691
 20
648.854147
 30
-1186.666667
 70
    64
  0
VERTEX
  8
I-UNIT
  5
5D8
 10
843.093691
 20
658.854147
 30
-1186.666667
 70
    64
  0
VERTEX
  8
I-UNIT
  5
5D9
 10
1703.093691
 20
658.854147
 30
-1176.666667
 70
    64
  0
VERTEX
  8
I-UNIT
  5
5DA
 10
1703.093691
 20
648.854147
 30
-1176.666667
 70
    64
  0
VERTEX
  8
I-UNIT
  5
5DB
 10
1703.093691
 20
648.854147
 30
-1186.666667
 70
    64
  0
VERTEX
  8
I-UNIT
  5
5DC
 10
1703.093691
 20
658.854147
 30
-1186.666667
 70
    64
  0
SEQEND
  8
I-UNIT
  5
5DD
  0
LINE
  8
I-UNIT
  5
5DE
 10
843.093691
 20
658.854147
 30
-1156.666667
 11
1703.093691
 21
658.854147
 31
-1156.666667
  0
3DFACE
  8
I-UNIT
  5
5DF
 10
883.093691
 20
638.854147
 30
-1166.666667
 11
883.093691
 21
638.854147
 31
-1176.666667
 12
1673.093691
 22
638.854147
 32
-1176.666667
 13
1673.093691
 23
638.854147
 33
-1166.666667
  0
3DFACE
  8
I-UNIT
  5
5E0
 10
883.093691
 20
619.479147
 30
-1166.666667
 11
883.093691
 21
619.479147
 31
-1176.666667
 12
1673.093691
 22
619.479147
 32
-1176.666667
 13
1673.093691
 23
619.479147
 33
-1166.666667
  0
3DFACE
  8
I-UNIT
  5
5E2
 10
883.093691
 20
580.729147
 30
-1166.666667
 11
883.093691
 21
580.729147
 31
-1176.666667
 12
1673.093691
 22
580.729147
 32
-1176.666667
 13
1673.093691
 23
580.729147
 33
-1166.666667
  0
POLYLINE
  8
I-UNIT
  5
5E4
 66
     1
 10
0.0
 20
0.0
 30
0.0
 70
    48
 71
     2
 72
     4
  0
VERTEX
  8
I-UNIT
  5
5E5
 10
1673.093691
 20
308.854147
 30
-1176.666667
 70
    64
  0
VERTEX
  8
I-UNIT
  5
5E6
 10
1673.093691
 20
308.854147
 30
-1166.666667
 70
    64
  0
VERTEX
  8
I-UNIT
  5
5E7
 10
1663.093691
 20
308.854147
 30
-1166.666667
 70
    64
  0
VERTEX
  8
I-UNIT
  5
5E8
 10
1663.093691
 20
308.854147
 30
-1176.666667
 70
    64
  0
VERTEX
  8
I-UNIT
  5
5E9
 10
1673.093691
 20
658.854147
 30
-1176.666667
 70
    64
  0
VERTEX
  8
I-UNIT
  5
5EA
 10
1673.093691
 20
658.854147
 30
-1166.666667
 70
    64
  0
VERTEX
  8
I-UNIT
  5
5EB
 10
1663.093691
 20
658.854147
 30
-1166.666667
 70
    64
  0
VERTEX
  8
I-UNIT
  5
5EC
 10
1663.093691
 20
658.854147
 30
-1176.666667
 70
    64
  0
SEQEND
  8
I-UNIT
  5
5ED
  0
LINE
  8
I-UNIT
  5
5EE
 10
1673.093691
 20
328.854147
 30
-1166.666667
 11
1673.093691
 21
638.854147
 31
-1166.666667
  0
POLYLINE
  8
I-UNIT
  5
5EF
 66
     1
 10
0.0
 20
0.0
 30
0.0
 70
    48
 71
     2
 72
     4
  0
VERTEX
  8
I-UNIT
  5
5F0
 10
843.093691
 20
318.854147
 30
-1156.666667
 70
    64
  0
VERTEX
  8
I-UNIT
  5
5F1
 10
843.093691
 20
308.854147
 30
-1156.666667
 70
    64
  0
VERTEX
  8
I-UNIT
  5
5F2
 10
843.093691
 20
308.854147
 30
-1166.666667
 70
    64
  0
VERTEX
  8
I-UNIT
  5
5F3
 10
843.093691
 20
318.854147
 30
-1166.666667
 70
    64
  0
VERTEX
  8
I-UNIT
  5
5F4
 10
1703.093691
 20
318.854147
 30
-1156.666667
 70
    64
  0
VERTEX
  8
I-UNIT
  5
5F5
 10
1703.093691
 20
308.854147
 30
-1156.666667
 70
    64
  0
VERTEX
  8
I-UNIT
  5
5F6
 10
1703.093691
 20
308.854147
 30
-1166.666667
 70
    64
  0
VERTEX
  8
I-UNIT
  5
5F7
 10
1703.093691
 20
318.854147
 30
-1166.666667
 70
    64
  0
SEQEND
  8
I-UNIT
  5
5F8
  0
POLYLINE
  8
I-UNIT
  5
5F9
 66
     1
 10
0.0
 20
0.0
 30
0.0
 70
    48
 71
     2
 72
     4
  0
VERTEX
  8
I-UNIT
  5
5FA
 10
843.093691
 20
318.854147
 30
-1176.666667
 70
    64
  0
VERTEX
  8
I-UNIT
  5
5FB
 10
843.093691
 20
308.854147
 30
-1176.666667
 70
    64
  0
VERTEX
  8
I-UNIT
  5
5FC
 10
843.093691
 20
308.854147
 30
-1186.666667
 70
    64
  0
VERTEX
  8
I-UNIT
  5
5FD
 10
843.093691
 20
318.854147
 30
-1186.666667
 70
    64
  0
VERTEX
  8
I-UNIT
  5
5FE
 10
1703.093691
 20
318.854147
 30
-1176.666667
 70
    64
  0
VERTEX
  8
I-UNIT
  5
5FF
 10
1703.093691
 20
308.854147
 30
-1176.666667
 70
    64
  0
VERTEX
  8
I-UNIT
  5
600
 10
1703.093691
 20
308.854147
 30
-1186.666667
 70
    64
  0
VERTEX
  8
I-UNIT
  5
601
 10
1703.093691
 20
318.854147
 30
-1186.666667
 70
    64
  0
SEQEND
  8
I-UNIT
  5
602
  0
LINE
  8
I-UNIT
  5
603
 10
1673.093691
 20
328.854147
 30
-1166.666667
 11
883.093691
 21
328.854147
 31
-1166.666667
210
0.0
220
-1.0
230
0.0
  0
LINE
  8
I-UNIT
  5
604
 10
883.093691
 20
328.854147
 30
-1176.666667
 11
1673.093691
 21
328.854147
 31
-1176.666667
210
0.0
220
-1.0
230
0.0
  0
3DFACE
  8
I-UNIT
  5
605
 10
883.093691
 20
328.854147
 30
-1166.666667
 11
883.093691
 21
328.854147
 31
-1176.666667
 12
1673.093691
 22
328.854147
 32
-1176.666667
 13
1673.093691
 23
328.854147
 33
-1166.666667
  0
3DFACE
  8
I-UNIT
  5
606
 10
883.093691
 20
464.479147
 30
-1166.666667
 11
883.093691
 21
464.479147
 31
-1176.666667
 12
1673.093691
 22
464.479147
 32
-1176.666667
 13
1673.093691
 23
464.479147
 33
-1166.666667
  0
3DFACE
  8
I-UNIT
  5
608
 10
883.093691
 20
425.729147
 30
-1166.666667
 11
883.093691
 21
425.729147
 31
-1176.666667
 12
1673.093691
 22
425.729147
 32
-1176.666667
 13
1673.093691
 23
425.729147
 33
-1166.666667
  0
3DFACE
  8
I-UNIT
  5
60A
 10
883.093691
 20
386.979147
 30
-1166.666667
 11
883.093691
 21
386.979147
 31
-1176.666667
 12
1673.093691
 22
386.979147
 32
-1176.666667
 13
1673.093691
 23
386.979147
 33
-1166.666667
  0
3DFACE
  8
I-UNIT
  5
60C
 10
883.093691
 20
348.229147
 30
-1166.666667
 11
883.093691
 21
348.229147
 31
-1176.666667
 12
1673.093691
 22
348.229147
 32
-1176.666667
 13
1673.093691
 23
348.229147
 33
-1166.666667
  0
POLYLINE
  8
I-UNIT
  5
60D
 66
     1
 10
0.0
 20
0.0
 30
-308.854147
 70
     1
210
0.0
220
-1.0
230
0.0
  0
VERTEX
  8
I-UNIT
  5
60E
 10
1663.093691
 20
-1176.666667
 30
-308.854147
  0
VERTEX
  8
I-UNIT
  5
60F
 10
1663.093691
 20
-1166.666667
 30
-308.854147
  0
VERTEX
  8
I-UNIT
  5
610
 10
1673.093691
 20
-1166.666667
 30
-308.854147
  0
VERTEX
  8
I-UNIT
  5
611
 10
1673.093691
 20
-1176.666667
 30
-308.854147
  0
SEQEND
  8
I-UNIT
  5
612
  0
LINE
  8
I-UNIT
  5
613
 10
1673.093691
 20
328.854147
 30
-1176.666667
 11
1673.093691
 21
328.854147
 31
-1166.666667
210
0.0
220
-1.0
230
0.0
  0
3DFACE
  8
I-UNIT
  5
615
 10
883.093691
 20
541.979147
 30
-1166.666667
 11
883.093691
 21
541.979147
 31
-1176.666667
 12
1673.093691
 22
541.979147
 32
-1176.666667
 13
1673.093691
 23
541.979147
 33
-1166.666667
  0
3DFACE
  8
I-UNIT
  5
617
 10
883.093691
 20
503.229147
 30
-1166.666667
 11
883.093691
 21
503.229147
 31
-1176.666667
 12
1673.093691
 22
503.229147
 32
-1176.666667
 13
1673.093691
 23
503.229147
 33
-1166.666667
  0
POLYLINE
  8
I-UNIT
  5
618
 66
     1
 10
0.0
 20
0.0
 30
0.0
 70
    48
 71
     2
 72
     4
  0
VERTEX
  8
I-UNIT
  5
619
 10
883.093691
 20
308.854147
 30
-1176.666667
 70
    64
  0
VERTEX
  8
I-UNIT
  5
61A
 10
883.093691
 20
308.854147
 30
-1166.666667
 70
    64
  0
VERTEX
  8
I-UNIT
  5
61B
 10
873.093691
 20
308.854147
 30
-1166.666667
 70
    64
  0
VERTEX
  8
I-UNIT
  5
61C
 10
873.093691
 20
308.854147
 30
-1176.666667
 70
    64
  0
VERTEX
  8
I-UNIT
  5
61D
 10
883.093691
 20
658.854147
 30
-1176.666667
 70
    64
  0
VERTEX
  8
I-UNIT
  5
61E
 10
883.093691
 20
658.854147
 30
-1166.666667
 70
    64
  0
VERTEX
  8
I-UNIT
  5
61F
 10
873.093691
 20
658.854147
 30
-1166.666667
 70
    64
  0
VERTEX
  8
I-UNIT
  5
620
 10
873.093691
 20
658.854147
 30
-1176.666667
 70
    64
  0
SEQEND
  8
I-UNIT
  5
621
  0
LINE
  8
I-UNIT
  5
622
 10
883.093691
 20
328.854147
 30
-1176.666667
 11
883.093691
 21
638.854147
 31
-1176.666667
  0
LINE
  8
I-UNIT
  5
623
 10
873.093691
 20
658.854147
 30
-1166.666667
 11
873.093691
 21
308.854147
 31
-1166.666667
  0
POLYLINE
  8
I-UNIT
  5
624
 66
     1
 10
0.0
 20
0.0
 30
-843.093691
 70
     1
210
-1.0
220
0.0
230
0.0
  0
VERTEX
  8
I-UNIT
  5
625
 10
-318.854147
 20
-1186.666667
 30
-843.093691
  0
VERTEX
  8
I-UNIT
  5
626
 10
-318.854147
 20
-1176.666667
 30
-843.093691
  0
VERTEX
  8
I-UNIT
  5
627
 10
-308.854147
 20
-1176.666667
 30
-843.093691
  0
VERTEX
  8
I-UNIT
  5
628
 10
-308.854147
 20
-1186.666667
 30
-843.093691
  0
SEQEND
  8
I-UNIT
  5
629
  0
POLYLINE
  8
I-UNIT
  5
62A
 66
     1
 10
0.0
 20
0.0
 30
-843.093691
 70
     1
210
-1.0
220
0.0
230
0.0
  0
VERTEX
  8
I-UNIT
  5
62B
 10
-318.854147
 20
-1166.666667
 30
-843.093691
  0
VERTEX
  8
I-UNIT
  5
62C
 10
-318.854147
 20
-1156.666667
 30
-843.093691
  0
VERTEX
  8
I-UNIT
  5
62D
 10
-308.854147
 20
-1156.666667
 30
-843.093691
  0
VERTEX
  8
I-UNIT
  5
62E
 10
-308.854147
 20
-1166.666667
 30
-843.093691
  0
SEQEND
  8
I-UNIT
  5
62F
  0
POLYLINE
  8
I-UNIT
  5
630
 66
     1
 10
0.0
 20
0.0
 30
-308.854147
 70
     1
210
0.0
220
-1.0
230
0.0
  0
VERTEX
  8
I-UNIT
  5
631
 10
873.093691
 20
-1176.666667
 30
-308.854147
  0
VERTEX
  8
I-UNIT
  5
632
 10
873.093691
 20
-1166.666667
 30
-308.854147
  0
VERTEX
  8
I-UNIT
  5
633
 10
883.093691
 20
-1166.666667
 30
-308.854147
  0
VERTEX
  8
I-UNIT
  5
634
 10
883.093691
 20
-1176.666667
 30
-308.854147
  0
SEQEND
  8
I-UNIT
  5
635
  0
LINE
  8
I-UNIT
  5
636
 10
883.093691
 20
328.854147
 30
-1166.666667
 11
883.093691
 21
328.854147
 31
-1176.666667
210
0.0
220
-1.0
230
0.0
  0
POLYLINE
  8
I-UNIT
  5
637
 66
     1
 10
0.0
 20
0.0
 30
0.0
 70
    48
 71
     2
 72
     4
  0
VERTEX
  8
I-UNIT
  5
638
 10
1078.093691
 20
308.854147
 30
-1176.666667
 70
    64
  0
VERTEX
  8
I-UNIT
  5
639
 10
1078.093691
 20
308.854147
 30
-1166.666667
 70
    64
  0
VERTEX
  8
I-UNIT
  5
63A
 10
1068.093691
 20
308.854147
 30
-1166.666667
 70
    64
  0
VERTEX
  8
I-UNIT
  5
63B
 10
1068.093691
 20
308.854147
 30
-1176.666667
 70
    64
  0
VERTEX
  8
I-UNIT
  5
63C
 10
1078.093691
 20
658.854147
 30
-1176.666667
 70
    64
  0
VERTEX
  8
I-UNIT
  5
63D
 10
1078.093691
 20
658.854147
 30
-1166.666667
 70
    64
  0
VERTEX
  8
I-UNIT
  5
63E
 10
1068.093691
 20
658.854147
 30
-1166.666667
 70
    64
  0
VERTEX
  8
I-UNIT
  5
63F
 10
1068.093691
 20
658.854147
 30
-1176.666667
 70
    64
  0
SEQEND
  8
I-UNIT
  5
640
  0
POLYLINE
  8
I-UNIT
  5
641
 66
     1
 10
0.0
 20
0.0
 30
0.0
 70
    48
 71
     2
 72
     4
  0
VERTEX
  8
I-UNIT
  5
642
 10
1278.093691
 20
308.854147
 30
-1176.666667
 70
    64
  0
VERTEX
  8
I-UNIT
  5
643
 10
1278.093691
 20
308.854147
 30
-1166.666667
 70
    64
  0
VERTEX
  8
I-UNIT
  5
644
 10
1268.093691
 20
308.854147
 30
-1166.666667
 70
    64
  0
VERTEX
  8
I-UNIT
  5
645
 10
1268.093691
 20
308.854147
 30
-1176.666667
 70
    64
  0
VERTEX
  8
I-UNIT
  5
646
 10
1278.093691
 20
658.854147
 30
-1176.666667
 70
    64
  0
VERTEX
  8
I-UNIT
  5
647
 10
1278.093691
 20
658.854147
 30
-1166.666667
 70
    64
  0
VERTEX
  8
I-UNIT
  5
648
 10
1268.093691
 20
658.854147
 30
-1166.666667
 70
    64
  0
VERTEX
  8
I-UNIT
  5
649
 10
1268.093691
 20
658.854147
 30
-1176.666667
 70
    64
  0
SEQEND
  8
I-UNIT
  5
64A
  0
POLYLINE
  8
I-UNIT
  5
64B
 66
     1
 10
0.0
 20
0.0
 30
-308.854147
 70
     1
210
0.0
220
-1.0
230
0.0
  0
VERTEX
  8
I-UNIT
  5
64C
 10
1268.093691
 20
-1176.666667
 30
-308.854147
  0
VERTEX
  8
I-UNIT
  5
64D
 10
1268.093691
 20
-1166.666667
 30
-308.854147
  0
VERTEX
  8
I-UNIT
  5
64E
 10
1278.093691
 20
-1166.666667
 30
-308.854147
  0
VERTEX
  8
I-UNIT
  5
64F
 10
1278.093691
 20
-1176.666667
 30
-308.854147
  0
SEQEND
  8
I-UNIT
  5
650
  0
POLYLINE
  8
I-UNIT
  5
651
 66
     1
 10
0.0
 20
0.0
 30
0.0
 70
    48
 71
     2
 72
     4
  0
VERTEX
  8
I-UNIT
  5
652
 10
1478.093691
 20
308.854147
 30
-1176.666667
 70
    64
  0
VERTEX
  8
I-UNIT
  5
653
 10
1478.093691
 20
308.854147
 30
-1166.666667
 70
    64
  0
VERTEX
  8
I-UNIT
  5
654
 10
1468.093691
 20
308.854147
 30
-1166.666667
 70
    64
  0
VERTEX
  8
I-UNIT
  5
655
 10
1468.093691
 20
308.854147
 30
-1176.666667
 70
    64
  0
VERTEX
  8
I-UNIT
  5
656
 10
1478.093691
 20
658.854147
 30
-1176.666667
 70
    64
  0
VERTEX
  8
I-UNIT
  5
657
 10
1478.093691
 20
658.854147
 30
-1166.666667
 70
    64
  0
VERTEX
  8
I-UNIT
  5
658
 10
1468.093691
 20
658.854147
 30
-1166.666667
 70
    64
  0
VERTEX
  8
I-UNIT
  5
659
 10
1468.093691
 20
658.854147
 30
-1176.666667
 70
    64
  0
SEQEND
  8
I-UNIT
  5
65A
  0
POLYLINE
  8
I-UNIT
  5
65B
 66
     1
 10
0.0
 20
0.0
 30
-308.854147
 70
     1
210
0.0
220
-1.0
230
0.0
  0
VERTEX
  8
I-UNIT
  5
65C
 10
1468.093691
 20
-1176.666667
 30
-308.854147
  0
VERTEX
  8
I-UNIT
  5
65D
 10
1468.093691
 20
-1166.666667
 30
-308.854147
  0
VERTEX
  8
I-UNIT
  5
65E
 10
1478.093691
 20
-1166.666667
 30
-308.854147
  0
VERTEX
  8
I-UNIT
  5
65F
 10
1478.093691
 20
-1176.666667
 30
-308.854147
  0
SEQEND
  8
I-UNIT
  5
660
  0
POLYLINE
  8
I-UNIT
  5
661
 66
     1
 10
0.0
 20
0.0
 30
-843.093691
 70
     1
210
-1.0
220
0.0
230
0.0
  0
VERTEX
  8
I-UNIT
  5
662
 10
-658.854147
 20
-1186.666667
 30
-843.093691
  0
VERTEX
  8
I-UNIT
  5
663
 10
-658.854147
 20
-1176.666667
 30
-843.093691
  0
VERTEX
  8
I-UNIT
  5
664
 10
-648.854147
 20
-1176.666667
 30
-843.093691
  0
VERTEX
  8
I-UNIT
  5
665
 10
-648.854147
 20
-1186.666667
 30
-843.093691
  0
SEQEND
  8
I-UNIT
  5
666
  0
POLYLINE
  8
I-UNIT
  5
667
 66
     1
 10
0.0
 20
0.0
 30
-843.093691
 70
     1
210
-1.0
220
0.0
230
0.0
  0
VERTEX
  8
I-UNIT
  5
668
 10
-658.854147
 20
-1166.666667
 30
-843.093691
  0
VERTEX
  8
I-UNIT
  5
669
 10
-658.854147
 20
-1156.666667
 30
-843.093691
  0
VERTEX
  8
I-UNIT
  5
66A
 10
-648.854147
 20
-1156.666667
 30
-843.093691
  0
VERTEX
  8
I-UNIT
  5
66B
 10
-648.854147
 20
-1166.666667
 30
-843.093691
  0
SEQEND
  8
I-UNIT
  5
66C
  0
POLYLINE
  8
I-UNIT
  5
66D
 66
     1
 10
0.0
 20
0.0
 30
658.854147
 70
     1
210
0.0
220
1.0
230
0.0
  0
VERTEX
  8
I-UNIT
  5
66E
 10
-873.093691
 20
-1176.666667
 30
658.854147
  0
VERTEX
  8
I-UNIT
  5
66F
 10
-873.093691
 20
-1166.666667
 30
658.854147
  0
VERTEX
  8
I-UNIT
  5
670
 10
-883.093691
 20
-1166.666667
 30
658.854147
  0
VERTEX
  8
I-UNIT
  5
671
 10
-883.093691
 20
-1176.666667
 30
658.854147
  0
SEQEND
  8
I-UNIT
  5
672
  0
POLYLINE
  8
I-UNIT
  5
673
 66
     1
 10
0.0
 20
0.0
 30
0.0
 70
    48
 71
     2
 72
     4
  0
VERTEX
  8
I-UNIT
  5
674
 10
843.093691
 20
658.854147
 30
-1490.0
 70
    64
  0
VERTEX
  8
I-UNIT
  5
675
 10
843.093691
 20
648.854147
 30
-1490.0
 70
    64
  0
VERTEX
  8
I-UNIT
  5
676
 10
843.093691
 20
648.854147
 30
-1500.0
 70
    64
  0
VERTEX
  8
I-UNIT
  5
677
 10
843.093691
 20
658.854147
 30
-1500.0
 70
    64
  0
VERTEX
  8
I-UNIT
  5
678
 10
1703.093691
 20
658.854147
 30
-1490.0
 70
    64
  0
VERTEX
  8
I-UNIT
  5
679
 10
1703.093691
 20
648.854147
 30
-1490.0
 70
    64
  0
VERTEX
  8
I-UNIT
  5
67A
 10
1703.093691
 20
648.854147
 30
-1500.0
 70
    64
  0
VERTEX
  8
I-UNIT
  5
67B
 10
1703.093691
 20
658.854147
 30
-1500.0
 70
    64
  0
SEQEND
  8
I-UNIT
  5
67C
  0
POLYLINE
  8
I-UNIT
  5
67D
 66
     1
 10
0.0
 20
0.0
 30
0.0
 70
    48
 71
     2
 72
     4
  0
VERTEX
  8
I-UNIT
  5
67E
 10
843.093691
 20
658.854147
 30
-1510.0
 70
    64
  0
VERTEX
  8
I-UNIT
  5
67F
 10
843.093691
 20
648.854147
 30
-1510.0
 70
    64
  0
VERTEX
  8
I-UNIT
  5
680
 10
843.093691
 20
648.854147
 30
-1520.0
 70
    64
  0
VERTEX
  8
I-UNIT
  5
681
 10
843.093691
 20
658.854147
 30
-1520.0
 70
    64
  0
VERTEX
  8
I-UNIT
  5
682
 10
1703.093691
 20
658.854147
 30
-1510.0
 70
    64
  0
VERTEX
  8
I-UNIT
  5
683
 10
1703.093691
 20
648.854147
 30
-1510.0
 70
    64
  0
VERTEX
  8
I-UNIT
  5
684
 10
1703.093691
 20
648.854147
 30
-1520.0
 70
    64
  0
VERTEX
  8
I-UNIT
  5
685
 10
1703.093691
 20
658.854147
 30
-1520.0
 70
    64
  0
SEQEND
  8
I-UNIT
  5
686
  0
LINE
  8
I-UNIT
  5
687
 10
843.093691
 20
658.854147
 30
-1490.0
 11
1703.093691
 21
658.854147
 31
-1490.0
  0
3DFACE
  8
I-UNIT
  5
688
 10
883.093691
 20
638.854147
 30
-1500.0
 11
883.093691
 21
638.854147
 31
-1510.0
 12
1673.093691
 22
638.854147
 32
-1510.0
 13
1673.093691
 23
638.854147
 33
-1500.0
  0
3DFACE
  8
I-UNIT
  5
689
 10
883.093691
 20
619.479147
 30
-1500.0
 11
883.093691
 21
619.479147
 31
-1510.0
 12
1673.093691
 22
619.479147
 32
-1510.0
 13
1673.093691
 23
619.479147
 33
-1500.0
  0
3DFACE
  8
I-UNIT
  5
68B
 10
883.093691
 20
580.729147
 30
-1500.0
 11
883.093691
 21
580.729147
 31
-1510.0
 12
1673.093691
 22
580.729147
 32
-1510.0
 13
1673.093691
 23
580.729147
 33
-1500.0
  0
POLYLINE
  8
I-UNIT
  5
68D
 66
     1
 10
0.0
 20
0.0
 30
0.0
 70
    48
 71
     2
 72
     4
  0
VERTEX
  8
I-UNIT
  5
68E
 10
1673.093691
 20
308.854147
 30
-1510.0
 70
    64
  0
VERTEX
  8
I-UNIT
  5
68F
 10
1673.093691
 20
308.854147
 30
-1500.0
 70
    64
  0
VERTEX
  8
I-UNIT
  5
690
 10
1663.093691
 20
308.854147
 30
-1500.0
 70
    64
  0
VERTEX
  8
I-UNIT
  5
691
 10
1663.093691
 20
308.854147
 30
-1510.0
 70
    64
  0
VERTEX
  8
I-UNIT
  5
692
 10
1673.093691
 20
658.854147
 30
-1510.0
 70
    64
  0
VERTEX
  8
I-UNIT
  5
693
 10
1673.093691
 20
658.854147
 30
-1500.0
 70
    64
  0
VERTEX
  8
I-UNIT
  5
694
 10
1663.093691
 20
658.854147
 30
-1500.0
 70
    64
  0
VERTEX
  8
I-UNIT
  5
695
 10
1663.093691
 20
658.854147
 30
-1510.0
 70
    64
  0
SEQEND
  8
I-UNIT
  5
696
  0
LINE
  8
I-UNIT
  5
697
 10
1673.093691
 20
328.854147
 30
-1500.0
 11
1673.093691
 21
638.854147
 31
-1500.0
  0
POLYLINE
  8
I-UNIT
  5
698
 66
     1
 10
0.0
 20
0.0
 30
0.0
 70
    48
 71
     2
 72
     4
  0
VERTEX
  8
I-UNIT
  5
699
 10
843.093691
 20
318.854147
 30
-1490.0
 70
    64
  0
VERTEX
  8
I-UNIT
  5
69A
 10
843.093691
 20
308.854147
 30
-1490.0
 70
    64
  0
VERTEX
  8
I-UNIT
  5
69B
 10
843.093691
 20
308.854147
 30
-1500.0
 70
    64
  0
VERTEX
  8
I-UNIT
  5
69C
 10
843.093691
 20
318.854147
 30
-1500.0
 70
    64
  0
VERTEX
  8
I-UNIT
  5
69D
 10
1703.093691
 20
318.854147
 30
-1490.0
 70
    64
  0
VERTEX
  8
I-UNIT
  5
69E
 10
1703.093691
 20
308.854147
 30
-1490.0
 70
    64
  0
VERTEX
  8
I-UNIT
  5
69F
 10
1703.093691
 20
308.854147
 30
-1500.0
 70
    64
  0
VERTEX
  8
I-UNIT
  5
6A0
 10
1703.093691
 20
318.854147
 30
-1500.0
 70
    64
  0
SEQEND
  8
I-UNIT
  5
6A1
  0
POLYLINE
  8
I-UNIT
  5
6A2
 66
     1
 10
0.0
 20
0.0
 30
0.0
 70
    48
 71
     2
 72
     4
  0
VERTEX
  8
I-UNIT
  5
6A3
 10
843.093691
 20
318.854147
 30
-1510.0
 70
    64
  0
VERTEX
  8
I-UNIT
  5
6A4
 10
843.093691
 20
308.854147
 30
-1510.0
 70
    64
  0
VERTEX
  8
I-UNIT
  5
6A5
 10
843.093691
 20
308.854147
 30
-1520.0
 70
    64
  0
VERTEX
  8
I-UNIT
  5
6A6
 10
843.093691
 20
318.854147
 30
-1520.0
 70
    64
  0
VERTEX
  8
I-UNIT
  5
6A7
 10
1703.093691
 20
318.854147
 30
-1510.0
 70
    64
  0
VERTEX
  8
I-UNIT
  5
6A8
 10
1703.093691
 20
308.854147
 30
-1510.0
 70
    64
  0
VERTEX
  8
I-UNIT
  5
6A9
 10
1703.093691
 20
308.854147
 30
-1520.0
 70
    64
  0
VERTEX
  8
I-UNIT
  5
6AA
 10
1703.093691
 20
318.854147
 30
-1520.0
 70
    64
  0
SEQEND
  8
I-UNIT
  5
6AB
  0
LINE
  8
I-UNIT
  5
6AC
 10
1673.093691
 20
328.854147
 30
-1500.0
 11
883.093691
 21
328.854147
 31
-1500.0
210
0.0
220
-1.0
230
0.0
  0
LINE
  8
I-UNIT
  5
6AD
 10
883.093691
 20
328.854147
 30
-1510.0
 11
1673.093691
 21
328.854147
 31
-1510.0
210
0.0
220
-1.0
230
0.0
  0
3DFACE
  8
I-UNIT
  5
6AE
 10
883.093691
 20
328.854147
 30
-1500.0
 11
883.093691
 21
328.854147
 31
-1510.0
 12
1673.093691
 22
328.854147
 32
-1510.0
 13
1673.093691
 23
328.854147
 33
-1500.0
  0
3DFACE
  8
I-UNIT
  5
6AF
 10
883.093691
 20
464.479147
 30
-1500.0
 11
883.093691
 21
464.479147
 31
-1510.0
 12
1673.093691
 22
464.479147
 32
-1510.0
 13
1673.093691
 23
464.479147
 33
-1500.0
  0
3DFACE
  8
I-UNIT
  5
6B1
 10
883.093691
 20
425.729147
 30
-1500.0
 11
883.093691
 21
425.729147
 31
-1510.0
 12
1673.093691
 22
425.729147
 32
-1510.0
 13
1673.093691
 23
425.729147
 33
-1500.0
  0
3DFACE
  8
I-UNIT
  5
6B3
 10
883.093691
 20
386.979147
 30
-1500.0
 11
883.093691
 21
386.979147
 31
-1510.0
 12
1673.093691
 22
386.979147
 32
-1510.0
 13
1673.093691
 23
386.979147
 33
-1500.0
  0
3DFACE
  8
I-UNIT
  5
6B5
 10
883.093691
 20
348.229147
 30
-1500.0
 11
883.093691
 21
348.229147
 31
-1510.0
 12
1673.093691
 22
348.229147
 32
-1510.0
 13
1673.093691
 23
348.229147
 33
-1500.0
  0
POLYLINE
  8
I-UNIT
  5
6B6
 66
     1
 10
0.0
 20
0.0
 30
-308.854147
 70
     1
210
0.0
220
-1.0
230
0.0
  0
VERTEX
  8
I-UNIT
  5
6B7
 10
1663.093691
 20
-1510.0
 30
-308.854147
  0
VERTEX
  8
I-UNIT
  5
6B8
 10
1663.093691
 20
-1500.0
 30
-308.854147
  0
VERTEX
  8
I-UNIT
  5
6B9
 10
1673.093691
 20
-1500.0
 30
-308.854147
  0
VERTEX
  8
I-UNIT
  5
6BA
 10
1673.093691
 20
-1510.0
 30
-308.854147
  0
SEQEND
  8
I-UNIT
  5
6BB
  0
LINE
  8
I-UNIT
  5
6BC
 10
1673.093691
 20
328.854147
 30
-1510.0
 11
1673.093691
 21
328.854147
 31
-1500.0
210
0.0
220
-1.0
230
0.0
  0
3DFACE
  8
I-UNIT
  5
6BE
 10
883.093691
 20
541.979147
 30
-1500.0
 11
883.093691
 21
541.979147
 31
-1510.0
 12
1673.093691
 22
541.979147
 32
-1510.0
 13
1673.093691
 23
541.979147
 33
-1500.0
  0
3DFACE
  8
I-UNIT
  5
6C0
 10
883.093691
 20
503.229147
 30
-1500.0
 11
883.093691
 21
503.229147
 31
-1510.0
 12
1673.093691
 22
503.229147
 32
-1510.0
 13
1673.093691
 23
503.229147
 33
-1500.0
  0
POLYLINE
  8
I-UNIT
  5
6C1
 66
     1
 10
0.0
 20
0.0
 30
0.0
 70
    48
 71
     2
 72
     4
  0
VERTEX
  8
I-UNIT
  5
6C2
 10
883.093691
 20
308.854147
 30
-1510.0
 70
    64
  0
VERTEX
  8
I-UNIT
  5
6C3
 10
883.093691
 20
308.854147
 30
-1500.0
 70
    64
  0
VERTEX
  8
I-UNIT
  5
6C4
 10
873.093691
 20
308.854147
 30
-1500.0
 70
    64
  0
VERTEX
  8
I-UNIT
  5
6C5
 10
873.093691
 20
308.854147
 30
-1510.0
 70
    64
  0
VERTEX
  8
I-UNIT
  5
6C6
 10
883.093691
 20
658.854147
 30
-1510.0
 70
    64
  0
VERTEX
  8
I-UNIT
  5
6C7
 10
883.093691
 20
658.854147
 30
-1500.0
 70
    64
  0
VERTEX
  8
I-UNIT
  5
6C8
 10
873.093691
 20
658.854147
 30
-1500.0
 70
    64
  0
VERTEX
  8
I-UNIT
  5
6C9
 10
873.093691
 20
658.854147
 30
-1510.0
 70
    64
  0
SEQEND
  8
I-UNIT
  5
6CA
  0
LINE
  8
I-UNIT
  5
6CB
 10
883.093691
 20
328.854147
 30
-1510.0
 11
883.093691
 21
638.854147
 31
-1510.0
  0
LINE
  8
I-UNIT
  5
6CC
 10
873.093691
 20
658.854147
 30
-1500.0
 11
873.093691
 21
308.854147
 31
-1500.0
  0
POLYLINE
  8
I-UNIT
  5
6CD
 66
     1
 10
0.0
 20
0.0
 30
-843.093691
 70
     1
210
-1.0
220
0.0
230
0.0
  0
VERTEX
  8
I-UNIT
  5
6CE
 10
-318.854147
 20
-1520.0
 30
-843.093691
  0
VERTEX
  8
I-UNIT
  5
6CF
 10
-318.854147
 20
-1510.0
 30
-843.093691
  0
VERTEX
  8
I-UNIT
  5
6D0
 10
-308.854147
 20
-1510.0
 30
-843.093691
  0
VERTEX
  8
I-UNIT
  5
6D1
 10
-308.854147
 20
-1520.0
 30
-843.093691
  0
SEQEND
  8
I-UNIT
  5
6D2
  0
POLYLINE
  8
I-UNIT
  5
6D3
 66
     1
 10
0.0
 20
0.0
 30
-843.093691
 70
     1
210
-1.0
220
0.0
230
0.0
  0
VERTEX
  8
I-UNIT
  5
6D4
 10
-318.854147
 20
-1500.0
 30
-843.093691
  0
VERTEX
  8
I-UNIT
  5
6D5
 10
-318.854147
 20
-1490.0
 30
-843.093691
  0
VERTEX
  8
I-UNIT
  5
6D6
 10
-308.854147
 20
-1490.0
 30
-843.093691
  0
VERTEX
  8
I-UNIT
  5
6D7
 10
-308.854147
 20
-1500.0
 30
-843.093691
  0
SEQEND
  8
I-UNIT
  5
6D8
  0
POLYLINE
  8
I-UNIT
  5
6D9
 66
     1
 10
0.0
 20
0.0
 30
-308.854147
 70
     1
210
0.0
220
-1.0
230
0.0
  0
VERTEX
  8
I-UNIT
  5
6DA
 10
873.093691
 20
-1510.0
 30
-308.854147
  0
VERTEX
  8
I-UNIT
  5
6DB
 10
873.093691
 20
-1500.0
 30
-308.854147
  0
VERTEX
  8
I-UNIT
  5
6DC
 10
883.093691
 20
-1500.0
 30
-308.854147
  0
VERTEX
  8
I-UNIT
  5
6DD
 10
883.093691
 20
-1510.0
 30
-308.854147
  0
SEQEND
  8
I-UNIT
  5
6DE
  0
LINE
  8
I-UNIT
  5
6DF
 10
883.093691
 20
328.854147
 30
-1500.0
 11
883.093691
 21
328.854147
 31
-1510.0
210
0.0
220
-1.0
230
0.0
  0
POLYLINE
  8
I-UNIT
  5
6E0
 66
     1
 10
0.0
 20
0.0
 30
0.0
 70
    48
 71
     2
 72
     4
  0
VERTEX
  8
I-UNIT
  5
6E1
 10
1078.093691
 20
308.854147
 30
-1510.0
 70
    64
  0
VERTEX
  8
I-UNIT
  5
6E2
 10
1078.093691
 20
308.854147
 30
-1500.0
 70
    64
  0
VERTEX
  8
I-UNIT
  5
6E3
 10
1068.093691
 20
308.854147
 30
-1500.0
 70
    64
  0
VERTEX
  8
I-UNIT
  5
6E4
 10
1068.093691
 20
308.854147
 30
-1510.0
 70
    64
  0
VERTEX
  8
I-UNIT
  5
6E5
 10
1078.093691
 20
658.854147
 30
-1510.0
 70
    64
  0
VERTEX
  8
I-UNIT
  5
6E6
 10
1078.093691
 20
658.854147
 30
-1500.0
 70
    64
  0
VERTEX
  8
I-UNIT
  5
6E7
 10
1068.093691
 20
658.854147
 30
-1500.0
 70
    64
  0
VERTEX
  8
I-UNIT
  5
6E8
 10
1068.093691
 20
658.854147
 30
-1510.0
 70
    64
  0
SEQEND
  8
I-UNIT
  5
6E9
  0
POLYLINE
  8
I-UNIT
  5
6EA
 66
     1
 10
0.0
 20
0.0
 30
0.0
 70
    48
 71
     2
 72
     4
  0
VERTEX
  8
I-UNIT
  5
6EB
 10
1278.093691
 20
308.854147
 30
-1510.0
 70
    64
  0
VERTEX
  8
I-UNIT
  5
6EC
 10
1278.093691
 20
308.854147
 30
-1500.0
 70
    64
  0
VERTEX
  8
I-UNIT
  5
6ED
 10
1268.093691
 20
308.854147
 30
-1500.0
 70
    64
  0
VERTEX
  8
I-UNIT
  5
6EE
 10
1268.093691
 20
308.854147
 30
-1510.0
 70
    64
  0
VERTEX
  8
I-UNIT
  5
6EF
 10
1278.093691
 20
658.854147
 30
-1510.0
 70
    64
  0
VERTEX
  8
I-UNIT
  5
6F0
 10
1278.093691
 20
658.854147
 30
-1500.0
 70
    64
  0
VERTEX
  8
I-UNIT
  5
6F1
 10
1268.093691
 20
658.854147
 30
-1500.0
 70
    64
  0
VERTEX
  8
I-UNIT
  5
6F2
 10
1268.093691
 20
658.854147
 30
-1510.0
 70
    64
  0
SEQEND
  8
I-UNIT
  5
6F3
  0
POLYLINE
  8
I-UNIT
  5
6F4
 66
     1
 10
0.0
 20
0.0
 30
-308.854147
 70
     1
210
0.0
220
-1.0
230
0.0
  0
VERTEX
  8
I-UNIT
  5
6F5
 10
1268.093691
 20
-1510.0
 30
-308.854147
  0
VERTEX
  8
I-UNIT
  5
6F6
 10
1268.093691
 20
-1500.0
 30
-308.854147
  0
VERTEX
  8
I-UNIT
  5
6F7
 10
1278.093691
 20
-1500.0
 30
-308.854147
  0
VERTEX
  8
I-UNIT
  5
6F8
 10
1278.093691
 20
-1510.0
 30
-308.854147
  0
SEQEND
  8
I-UNIT
  5
6F9
  0
POLYLINE
  8
I-UNIT
  5
6FA
 66
     1
 10
0.0
 20
0.0
 30
0.0
 70
    48
 71
     2
 72
     4
  0
VERTEX
  8
I-UNIT
  5
6FB
 10
1478.093691
 20
308.854147
 30
-1510.0
 70
    64
  0
VERTEX
  8
I-UNIT
  5
6FC
 10
1478.093691
 20
308.854147
 30
-1500.0
 70
    64
  0
VERTEX
  8
I-UNIT
  5
6FD
 10
1468.093691
 20
308.854147
 30
-1500.0
 70
    64
  0
VERTEX
  8
I-UNIT
  5
6FE
 10
1468.093691
 20
308.854147
 30
-1510.0
 70
    64
  0
VERTEX
  8
I-UNIT
  5
6FF
 10
1478.093691
 20
658.854147
 30
-1510.0
 70
    64
  0
VERTEX
  8
I-UNIT
  5
700
 10
1478.093691
 20
658.854147
 30
-1500.0
 70
    64
  0
VERTEX
  8
I-UNIT
  5
701
 10
1468.093691
 20
658.854147
 30
-1500.0
 70
    64
  0
VERTEX
  8
I-UNIT
  5
702
 10
1468.093691
 20
658.854147
 30
-1510.0
 70
    64
  0
SEQEND
  8
I-UNIT
  5
703
  0
POLYLINE
  8
I-UNIT
  5
704
 66
     1
 10
0.0
 20
0.0
 30
-308.854147
 70
     1
210
0.0
220
-1.0
230
0.0
  0
VERTEX
  8
I-UNIT
  5
705
 10
1468.093691
 20
-1510.0
 30
-308.854147
  0
VERTEX
  8
I-UNIT
  5
706
 10
1468.093691
 20
-1500.0
 30
-308.854147
  0
VERTEX
  8
I-UNIT
  5
707
 10
1478.093691
 20
-1500.0
 30
-308.854147
  0
VERTEX
  8
I-UNIT
  5
708
 10
1478.093691
 20
-1510.0
 30
-308.854147
  0
SEQEND
  8
I-UNIT
  5
709
  0
POLYLINE
  8
I-UNIT
  5
70A
 66
     1
 10
0.0
 20
0.0
 30
-843.093691
 70
     1
210
-1.0
220
0.0
230
0.0
  0
VERTEX
  8
I-UNIT
  5
70B
 10
-658.854147
 20
-1520.0
 30
-843.093691
  0
VERTEX
  8
I-UNIT
  5
70C
 10
-658.854147
 20
-1510.0
 30
-843.093691
  0
VERTEX
  8
I-UNIT
  5
70D
 10
-648.854147
 20
-1510.0
 30
-843.093691
  0
VERTEX
  8
I-UNIT
  5
70E
 10
-648.854147
 20
-1520.0
 30
-843.093691
  0
SEQEND
  8
I-UNIT
  5
70F
  0
POLYLINE
  8
I-UNIT
  5
710
 66
     1
 10
0.0
 20
0.0
 30
-843.093691
 70
     1
210
-1.0
220
0.0
230
0.0
  0
VERTEX
  8
I-UNIT
  5
711
 10
-658.854147
 20
-1500.0
 30
-843.093691
  0
VERTEX
  8
I-UNIT
  5
712
 10
-658.854147
 20
-1490.0
 30
-843.093691
  0
VERTEX
  8
I-UNIT
  5
713
 10
-648.854147
 20
-1490.0
 30
-843.093691
  0
VERTEX
  8
I-UNIT
  5
714
 10
-648.854147
 20
-1500.0
 30
-843.093691
  0
SEQEND
  8
I-UNIT
  5
715
  0
POLYLINE
  8
I-UNIT
  5
716
 66
     1
 10
0.0
 20
0.0
 30
658.854147
 70
     1
210
0.0
220
1.0
230
0.0
  0
VERTEX
  8
I-UNIT
  5
717
 10
-873.093691
 20
-1510.0
 30
658.854147
  0
VERTEX
  8
I-UNIT
  5
718
 10
-873.093691
 20
-1500.0
 30
658.854147
  0
VERTEX
  8
I-UNIT
  5
719
 10
-883.093691
 20
-1500.0
 30
658.854147
  0
VERTEX
  8
I-UNIT
  5
71A
 10
-883.093691
 20
-1510.0
 30
658.854147
  0
SEQEND
  8
I-UNIT
  5
71B
  0
POLYLINE
  8
I-UNIT
  5
71C
 66
     1
 10
0.0
 20
0.0
 30
0.0
 70
    48
 71
     2
 72
     4
  0
VERTEX
  8
I-UNIT
  5
71D
 10
843.093691
 20
658.854147
 30
-1823.333333
 70
    64
  0
VERTEX
  8
I-UNIT
  5
71E
 10
843.093691
 20
648.854147
 30
-1823.333333
 70
    64
  0
VERTEX
  8
I-UNIT
  5
71F
 10
843.093691
 20
648.854147
 30
-1833.333333
 70
    64
  0
VERTEX
  8
I-UNIT
  5
720
 10
843.093691
 20
658.854147
 30
-1833.333333
 70
    64
  0
VERTEX
  8
I-UNIT
  5
721
 10
1703.093691
 20
658.854147
 30
-1823.333333
 70
    64
  0
VERTEX
  8
I-UNIT
  5
722
 10
1703.093691
 20
648.854147
 30
-1823.333333
 70
    64
  0
VERTEX
  8
I-UNIT
  5
723
 10
1703.093691
 20
648.854147
 30
-1833.333333
 70
    64
  0
VERTEX
  8
I-UNIT
  5
724
 10
1703.093691
 20
658.854147
 30
-1833.333333
 70
    64
  0
SEQEND
  8
I-UNIT
  5
725
  0
POLYLINE
  8
I-UNIT
  5
726
 66
     1
 10
0.0
 20
0.0
 30
0.0
 70
    48
 71
     2
 72
     4
  0
VERTEX
  8
I-UNIT
  5
727
 10
843.093691
 20
658.854147
 30
-1843.333333
 70
    64
  0
VERTEX
  8
I-UNIT
  5
728
 10
843.093691
 20
648.854147
 30
-1843.333333
 70
    64
  0
VERTEX
  8
I-UNIT
  5
729
 10
843.093691
 20
648.854147
 30
-1853.333333
 70
    64
  0
VERTEX
  8
I-UNIT
  5
72A
 10
843.093691
 20
658.854147
 30
-1853.333333
 70
    64
  0
VERTEX
  8
I-UNIT
  5
72B
 10
1703.093691
 20
658.854147
 30
-1843.333333
 70
    64
  0
VERTEX
  8
I-UNIT
  5
72C
 10
1703.093691
 20
648.854147
 30
-1843.333333
 70
    64
  0
VERTEX
  8
I-UNIT
  5
72D
 10
1703.093691
 20
648.854147
 30
-1853.333333
 70
    64
  0
VERTEX
  8
I-UNIT
  5
72E
 10
1703.093691
 20
658.854147
 30
-1853.333333
 70
    64
  0
SEQEND
  8
I-UNIT
  5
72F
  0
LINE
  8
I-UNIT
  5
730
 10
843.093691
 20
658.854147
 30
-1823.333333
 11
1703.093691
 21
658.854147
 31
-1823.333333
  0
3DFACE
  8
I-UNIT
  5
731
 10
883.093691
 20
638.854147
 30
-1833.333333
 11
883.093691
 21
638.854147
 31
-1843.333333
 12
1673.093691
 22
638.854147
 32
-1843.333333
 13
1673.093691
 23
638.854147
 33
-1833.333333
  0
3DFACE
  8
I-UNIT
  5
732
 10
883.093691
 20
619.479147
 30
-1833.333333
 11
883.093691
 21
619.479147
 31
-1843.333333
 12
1673.093691
 22
619.479147
 32
-1843.333333
 13
1673.093691
 23
619.479147
 33
-1833.333333
  0
3DFACE
  8
I-UNIT
  5
734
 10
883.093691
 20
580.729147
 30
-1833.333333
 11
883.093691
 21
580.729147
 31
-1843.333333
 12
1673.093691
 22
580.729147
 32
-1843.333333
 13
1673.093691
 23
580.729147
 33
-1833.333333
  0
POLYLINE
  8
I-UNIT
  5
736
 66
     1
 10
0.0
 20
0.0
 30
0.0
 70
    48
 71
     2
 72
     4
  0
VERTEX
  8
I-UNIT
  5
737
 10
1673.093691
 20
308.854147
 30
-1843.333333
 70
    64
  0
VERTEX
  8
I-UNIT
  5
738
 10
1673.093691
 20
308.854147
 30
-1833.333333
 70
    64
  0
VERTEX
  8
I-UNIT
  5
739
 10
1663.093691
 20
308.854147
 30
-1833.333333
 70
    64
  0
VERTEX
  8
I-UNIT
  5
73A
 10
1663.093691
 20
308.854147
 30
-1843.333333
 70
    64
  0
VERTEX
  8
I-UNIT
  5
73B
 10
1673.093691
 20
658.854147
 30
-1843.333333
 70
    64
  0
VERTEX
  8
I-UNIT
  5
73C
 10
1673.093691
 20
658.854147
 30
-1833.333333
 70
    64
  0
VERTEX
  8
I-UNIT
  5
73D
 10
1663.093691
 20
658.854147
 30
-1833.333333
 70
    64
  0
VERTEX
  8
I-UNIT
  5
73E
 10
1663.093691
 20
658.854147
 30
-1843.333333
 70
    64
  0
SEQEND
  8
I-UNIT
  5
73F
  0
LINE
  8
I-UNIT
  5
740
 10
1673.093691
 20
328.854147
 30
-1833.333333
 11
1673.093691
 21
638.854147
 31
-1833.333333
  0
POLYLINE
  8
I-UNIT
  5
741
 66
     1
 10
0.0
 20
0.0
 30
0.0
 70
    48
 71
     2
 72
     4
  0
VERTEX
  8
I-UNIT
  5
742
 10
843.093691
 20
318.854147
 30
-1823.333333
 70
    64
  0
VERTEX
  8
I-UNIT
  5
743
 10
843.093691
 20
308.854147
 30
-1823.333333
 70
    64
  0
VERTEX
  8
I-UNIT
  5
744
 10
843.093691
 20
308.854147
 30
-1833.333333
 70
    64
  0
VERTEX
  8
I-UNIT
  5
745
 10
843.093691
 20
318.854147
 30
-1833.333333
 70
    64
  0
VERTEX
  8
I-UNIT
  5
746
 10
1703.093691
 20
318.854147
 30
-1823.333333
 70
    64
  0
VERTEX
  8
I-UNIT
  5
747
 10
1703.093691
 20
308.854147
 30
-1823.333333
 70
    64
  0
VERTEX
  8
I-UNIT
  5
748
 10
1703.093691
 20
308.854147
 30
-1833.333333
 70
    64
  0
VERTEX
  8
I-UNIT
  5
749
 10
1703.093691
 20
318.854147
 30
-1833.333333
 70
    64
  0
SEQEND
  8
I-UNIT
  5
74A
  0
POLYLINE
  8
I-UNIT
  5
74B
 66
     1
 10
0.0
 20
0.0
 30
0.0
 70
    48
 71
     2
 72
     4
  0
VERTEX
  8
I-UNIT
  5
74C
 10
843.093691
 20
318.854147
 30
-1843.333333
 70
    64
  0
VERTEX
  8
I-UNIT
  5
74D
 10
843.093691
 20
308.854147
 30
-1843.333333
 70
    64
  0
VERTEX
  8
I-UNIT
  5
74E
 10
843.093691
 20
308.854147
 30
-1853.333333
 70
    64
  0
VERTEX
  8
I-UNIT
  5
74F
 10
843.093691
 20
318.854147
 30
-1853.333333
 70
    64
  0
VERTEX
  8
I-UNIT
  5
750
 10
1703.093691
 20
318.854147
 30
-1843.333333
 70
    64
  0
VERTEX
  8
I-UNIT
  5
751
 10
1703.093691
 20
308.854147
 30
-1843.333333
 70
    64
  0
VERTEX
  8
I-UNIT
  5
752
 10
1703.093691
 20
308.854147
 30
-1853.333333
 70
    64
  0
VERTEX
  8
I-UNIT
  5
753
 10
1703.093691
 20
318.854147
 30
-1853.333333
 70
    64
  0
SEQEND
  8
I-UNIT
  5
754
  0
LINE
  8
I-UNIT
  5
755
 10
1673.093691
 20
328.854147
 30
-1833.333333
 11
883.093691
 21
328.854147
 31
-1833.333333
210
0.0
220
-1.0
230
0.0
  0
LINE
  8
I-UNIT
  5
756
 10
883.093691
 20
328.854147
 30
-1843.333333
 11
1673.093691
 21
328.854147
 31
-1843.333333
210
0.0
220
-1.0
230
0.0
  0
3DFACE
  8
I-UNIT
  5
757
 10
883.093691
 20
328.854147
 30
-1833.333333
 11
883.093691
 21
328.854147
 31
-1843.333333
 12
1673.093691
 22
328.854147
 32
-1843.333333
 13
1673.093691
 23
328.854147
 33
-1833.333333
  0
3DFACE
  8
I-UNIT
  5
758
 10
883.093691
 20
464.479147
 30
-1833.333333
 11
883.093691
 21
464.479147
 31
-1843.333333
 12
1673.093691
 22
464.479147
 32
-1843.333333
 13
1673.093691
 23
464.479147
 33
-1833.333333
  0
3DFACE
  8
I-UNIT
  5
75A
 10
883.093691
 20
425.729147
 30
-1833.333333
 11
883.093691
 21
425.729147
 31
-1843.333333
 12
1673.093691
 22
425.729147
 32
-1843.333333
 13
1673.093691
 23
425.729147
 33
-1833.333333
  0
3DFACE
  8
I-UNIT
  5
75C
 10
883.093691
 20
386.979147
 30
-1833.333333
 11
883.093691
 21
386.979147
 31
-1843.333333
 12
1673.093691
 22
386.979147
 32
-1843.333333
 13
1673.093691
 23
386.979147
 33
-1833.333333
  0
3DFACE
  8
I-UNIT
  5
75E
 10
883.093691
 20
348.229147
 30
-1833.333333
 11
883.093691
 21
348.229147
 31
-1843.333333
 12
1673.093691
 22
348.229147
 32
-1843.333333
 13
1673.093691
 23
348.229147
 33
-1833.333333
  0
POLYLINE
  8
I-UNIT
  5
75F
 66
     1
 10
0.0
 20
0.0
 30
-308.854147
 70
     1
210
0.0
220
-1.0
230
0.0
  0
VERTEX
  8
I-UNIT
  5
760
 10
1663.093691
 20
-1843.333333
 30
-308.854147
  0
VERTEX
  8
I-UNIT
  5
761
 10
1663.093691
 20
-1833.333333
 30
-308.854147
  0
VERTEX
  8
I-UNIT
  5
762
 10
1673.093691
 20
-1833.333333
 30
-308.854147
  0
VERTEX
  8
I-UNIT
  5
763
 10
1673.093691
 20
-1843.333333
 30
-308.854147
  0
SEQEND
  8
I-UNIT
  5
764
  0
LINE
  8
I-UNIT
  5
765
 10
1673.093691
 20
328.854147
 30
-1843.333333
 11
1673.093691
 21
328.854147
 31
-1833.333333
210
0.0
220
-1.0
230
0.0
  0
3DFACE
  8
I-UNIT
  5
767
 10
883.093691
 20
541.979147
 30
-1833.333333
 11
883.093691
 21
541.979147
 31
-1843.333333
 12
1673.093691
 22
541.979147
 32
-1843.333333
 13
1673.093691
 23
541.979147
 33
-1833.333333
  0
3DFACE
  8
I-UNIT
  5
769
 10
883.093691
 20
503.229147
 30
-1833.333333
 11
883.093691
 21
503.229147
 31
-1843.333333
 12
1673.093691
 22
503.229147
 32
-1843.333333
 13
1673.093691
 23
503.229147
 33
-1833.333333
  0
POLYLINE
  8
I-UNIT
  5
76A
 66
     1
 10
0.0
 20
0.0
 30
0.0
 70
    48
 71
     2
 72
     4
  0
VERTEX
  8
I-UNIT
  5
76B
 10
883.093691
 20
308.854147
 30
-1843.333333
 70
    64
  0
VERTEX
  8
I-UNIT
  5
76C
 10
883.093691
 20
308.854147
 30
-1833.333333
 70
    64
  0
VERTEX
  8
I-UNIT
  5
76D
 10
873.093691
 20
308.854147
 30
-1833.333333
 70
    64
  0
VERTEX
  8
I-UNIT
  5
76E
 10
873.093691
 20
308.854147
 30
-1843.333333
 70
    64
  0
VERTEX
  8
I-UNIT
  5
76F
 10
883.093691
 20
658.854147
 30
-1843.333333
 70
    64
  0
VERTEX
  8
I-UNIT
  5
770
 10
883.093691
 20
658.854147
 30
-1833.333333
 70
    64
  0
VERTEX
  8
I-UNIT
  5
771
 10
873.093691
 20
658.854147
 30
-1833.333333
 70
    64
  0
VERTEX
  8
I-UNIT
  5
772
 10
873.093691
 20
658.854147
 30
-1843.333333
 70
    64
  0
SEQEND
  8
I-UNIT
  5
773
  0
LINE
  8
I-UNIT
  5
774
 10
883.093691
 20
328.854147
 30
-1843.333333
 11
883.093691
 21
638.854147
 31
-1843.333333
  0
LINE
  8
I-UNIT
  5
775
 10
873.093691
 20
658.854147
 30
-1833.333333
 11
873.093691
 21
308.854147
 31
-1833.333333
  0
POLYLINE
  8
I-UNIT
  5
776
 66
     1
 10
0.0
 20
0.0
 30
-843.093691
 70
     1
210
-1.0
220
0.0
230
0.0
  0
VERTEX
  8
I-UNIT
  5
777
 10
-318.854147
 20
-1853.333333
 30
-843.093691
  0
VERTEX
  8
I-UNIT
  5
778
 10
-318.854147
 20
-1843.333333
 30
-843.093691
  0
VERTEX
  8
I-UNIT
  5
779
 10
-308.854147
 20
-1843.333333
 30
-843.093691
  0
VERTEX
  8
I-UNIT
  5
77A
 10
-308.854147
 20
-1853.333333
 30
-843.093691
  0
SEQEND
  8
I-UNIT
  5
77B
  0
POLYLINE
  8
I-UNIT
  5
77C
 66
     1
 10
0.0
 20
0.0
 30
-843.093691
 70
     1
210
-1.0
220
0.0
230
0.0
  0
VERTEX
  8
I-UNIT
  5
77D
 10
-318.854147
 20
-1833.333333
 30
-843.093691
  0
VERTEX
  8
I-UNIT
  5
77E
 10
-318.854147
 20
-1823.333333
 30
-843.093691
  0
VERTEX
  8
I-UNIT
  5
77F
 10
-308.854147
 20
-1823.333333
 30
-843.093691
  0
VERTEX
  8
I-UNIT
  5
780
 10
-308.854147
 20
-1833.333333
 30
-843.093691
  0
SEQEND
  8
I-UNIT
  5
781
  0
POLYLINE
  8
I-UNIT
  5
782
 66
     1
 10
0.0
 20
0.0
 30
-308.854147
 70
     1
210
0.0
220
-1.0
230
0.0
  0
VERTEX
  8
I-UNIT
  5
783
 10
873.093691
 20
-1843.333333
 30
-308.854147
  0
VERTEX
  8
I-UNIT
  5
784
 10
873.093691
 20
-1833.333333
 30
-308.854147
  0
VERTEX
  8
I-UNIT
  5
785
 10
883.093691
 20
-1833.333333
 30
-308.854147
  0
VERTEX
  8
I-UNIT
  5
786
 10
883.093691
 20
-1843.333333
 30
-308.854147
  0
SEQEND
  8
I-UNIT
  5
787
  0
LINE
  8
I-UNIT
  5
788
 10
883.093691
 20
328.854147
 30
-1833.333333
 11
883.093691
 21
328.854147
 31
-1843.333333
210
0.0
220
-1.0
230
0.0
  0
POLYLINE
  8
I-UNIT
  5
789
 66
     1
 10
0.0
 20
0.0
 30
0.0
 70
    48
 71
     2
 72
     4
  0
VERTEX
  8
I-UNIT
  5
78A
 10
1078.093691
 20
308.854147
 30
-1843.333333
 70
    64
  0
VERTEX
  8
I-UNIT
  5
78B
 10
1078.093691
 20
308.854147
 30
-1833.333333
 70
    64
  0
VERTEX
  8
I-UNIT
  5
78C
 10
1068.093691
 20
308.854147
 30
-1833.333333
 70
    64
  0
VERTEX
  8
I-UNIT
  5
78D
 10
1068.093691
 20
308.854147
 30
-1843.333333
 70
    64
  0
VERTEX
  8
I-UNIT
  5
78E
 10
1078.093691
 20
658.854147
 30
-1843.333333
 70
    64
  0
VERTEX
  8
I-UNIT
  5
78F
 10
1078.093691
 20
658.854147
 30
-1833.333333
 70
    64
  0
VERTEX
  8
I-UNIT
  5
790
 10
1068.093691
 20
658.854147
 30
-1833.333333
 70
    64
  0
VERTEX
  8
I-UNIT
  5
791
 10
1068.093691
 20
658.854147
 30
-1843.333333
 70
    64
  0
SEQEND
  8
I-UNIT
  5
792
  0
POLYLINE
  8
I-UNIT
  5
793
 66
     1
 10
0.0
 20
0.0
 30
0.0
 70
    48
 71
     2
 72
     4
  0
VERTEX
  8
I-UNIT
  5
794
 10
1278.093691
 20
308.854147
 30
-1843.333333
 70
    64
  0
VERTEX
  8
I-UNIT
  5
795
 10
1278.093691
 20
308.854147
 30
-1833.333333
 70
    64
  0
VERTEX
  8
I-UNIT
  5
796
 10
1268.093691
 20
308.854147
 30
-1833.333333
 70
    64
  0
VERTEX
  8
I-UNIT
  5
797
 10
1268.093691
 20
308.854147
 30
-1843.333333
 70
    64
  0
VERTEX
  8
I-UNIT
  5
798
 10
1278.093691
 20
658.854147
 30
-1843.333333
 70
    64
  0
VERTEX
  8
I-UNIT
  5
799
 10
1278.093691
 20
658.854147
 30
-1833.333333
 70
    64
  0
VERTEX
  8
I-UNIT
  5
79A
 10
1268.093691
 20
658.854147
 30
-1833.333333
 70
    64
  0
VERTEX
  8
I-UNIT
  5
79B
 10
1268.093691
 20
658.854147
 30
-1843.333333
 70
    64
  0
SEQEND
  8
I-UNIT
  5
79C
  0
POLYLINE
  8
I-UNIT
  5
79D
 66
     1
 10
0.0
 20
0.0
 30
-308.854147
 70
     1
210
0.0
220
-1.0
230
0.0
  0
VERTEX
  8
I-UNIT
  5
79E
 10
1268.093691
 20
-1843.333333
 30
-308.854147
  0
VERTEX
  8
I-UNIT
  5
79F
 10
1268.093691
 20
-1833.333333
 30
-308.854147
  0
VERTEX
  8
I-UNIT
  5
7A0
 10
1278.093691
 20
-1833.333333
 30
-308.854147
  0
VERTEX
  8
I-UNIT
  5
7A1
 10
1278.093691
 20
-1843.333333
 30
-308.854147
  0
SEQEND
  8
I-UNIT
  5
7A2
  0
POLYLINE
  8
I-UNIT
  5
7A3
 66
     1
 10
0.0
 20
0.0
 30
0.0
 70
    48
 71
     2
 72
     4
  0
VERTEX
  8
I-UNIT
  5
7A4
 10
1478.093691
 20
308.854147
 30
-1843.333333
 70
    64
  0
VERTEX
  8
I-UNIT
  5
7A5
 10
1478.093691
 20
308.854147
 30
-1833.333333
 70
    64
  0
VERTEX
  8
I-UNIT
  5
7A6
 10
1468.093691
 20
308.854147
 30
-1833.333333
 70
    64
  0
VERTEX
  8
I-UNIT
  5
7A7
 10
1468.093691
 20
308.854147
 30
-1843.333333
 70
    64
  0
VERTEX
  8
I-UNIT
  5
7A8
 10
1478.093691
 20
658.854147
 30
-1843.333333
 70
    64
  0
VERTEX
  8
I-UNIT
  5
7A9
 10
1478.093691
 20
658.854147
 30
-1833.333333
 70
    64
  0
VERTEX
  8
I-UNIT
  5
7AA
 10
1468.093691
 20
658.854147
 30
-1833.333333
 70
    64
  0
VERTEX
  8
I-UNIT
  5
7AB
 10
1468.093691
 20
658.854147
 30
-1843.333333
 70
    64
  0
SEQEND
  8
I-UNIT
  5
7AC
  0
POLYLINE
  8
I-UNIT
  5
7AD
 66
     1
 10
0.0
 20
0.0
 30
-308.854147
 70
     1
210
0.0
220
-1.0
230
0.0
  0
VERTEX
  8
I-UNIT
  5
7AE
 10
1468.093691
 20
-1843.333333
 30
-308.854147
  0
VERTEX
  8
I-UNIT
  5
7AF
 10
1468.093691
 20
-1833.333333
 30
-308.854147
  0
VERTEX
  8
I-UNIT
  5
7B0
 10
1478.093691
 20
-1833.333333
 30
-308.854147
  0
VERTEX
  8
I-UNIT
  5
7B1
 10
1478.093691
 20
-1843.333333
 30
-308.854147
  0
SEQEND
  8
I-UNIT
  5
7B2
  0
POLYLINE
  8
I-UNIT
  5
7B3
 66
     1
 10
0.0
 20
0.0
 30
-843.093691
 70
     1
210
-1.0
220
0.0
230
0.0
  0
VERTEX
  8
I-UNIT
  5
7B4
 10
-658.854147
 20
-1853.333333
 30
-843.093691
  0
VERTEX
  8
I-UNIT
  5
7B5
 10
-658.854147
 20
-1843.333333
 30
-843.093691
  0
VERTEX
  8
I-UNIT
  5
7B6
 10
-648.854147
 20
-1843.333333
 30
-843.093691
  0
VERTEX
  8
I-UNIT
  5
7B7
 10
-648.854147
 20
-1853.333333
 30
-843.093691
  0
SEQEND
  8
I-UNIT
  5
7B8
  0
POLYLINE
  8
I-UNIT
  5
7B9
 66
     1
 10
0.0
 20
0.0
 30
-843.093691
 70
     1
210
-1.0
220
0.0
230
0.0
  0
VERTEX
  8
I-UNIT
  5
7BA
 10
-658.854147
 20
-1833.333333
 30
-843.093691
  0
VERTEX
  8
I-UNIT
  5
7BB
 10
-658.854147
 20
-1823.333333
 30
-843.093691
  0
VERTEX
  8
I-UNIT
  5
7BC
 10
-648.854147
 20
-1823.333333
 30
-843.093691
  0
VERTEX
  8
I-UNIT
  5
7BD
 10
-648.854147
 20
-1833.333333
 30
-843.093691
  0
SEQEND
  8
I-UNIT
  5
7BE
  0
POLYLINE
  8
I-UNIT
  5
7BF
 66
     1
 10
0.0
 20
0.0
 30
658.854147
 70
     1
210
0.0
220
1.0
230
0.0
  0
VERTEX
  8
I-UNIT
  5
7C0
 10
-873.093691
 20
-1843.333333
 30
658.854147
  0
VERTEX
  8
I-UNIT
  5
7C1
 10
-873.093691
 20
-1833.333333
 30
658.854147
  0
VERTEX
  8
I-UNIT
  5
7C2
 10
-883.093691
 20
-1833.333333
 30
658.854147
  0
VERTEX
  8
I-UNIT
  5
7C3
 10
-883.093691
 20
-1843.333333
 30
658.854147
  0
SEQEND
  8
I-UNIT
  5
7C4
  0
POLYLINE
  8
I-UNIT
  5
7D1
 66
     1
 10
0.0
 20
0.0
 30
0.0
 70
    48
 71
     2
 72
     4
  0
VERTEX
  8
I-UNIT
  5
7D2
 10
853.093691
 20
658.854147
 30
50.0
 70
    64
  0
VERTEX
  8
I-UNIT
  5
7D3
 10
853.093691
 20
683.854147
 30
50.0
 70
    64
  0
VERTEX
  8
I-UNIT
  5
7D4
 10
843.093691
 20
683.854147
 30
50.0
 70
    64
  0
VERTEX
  8
I-UNIT
  5
7D5
 10
843.093691
 20
658.854147
 30
50.0
 70
    64
  0
VERTEX
  8
I-UNIT
  5
7D6
 10
853.093691
 20
658.854147
 30
-1893.0
 70
    64
  0
VERTEX
  8
I-UNIT
  5
7D7
 10
853.093691
 20
683.854147
 30
-1893.0
 70
    64
  0
VERTEX
  8
I-UNIT
  5
7D8
 10
843.093691
 20
683.854147
 30
-1893.0
 70
    64
  0
VERTEX
  8
I-UNIT
  5
7D9
 10
843.093691
 20
658.854147
 30
-1893.0
 70
    64
  0
SEQEND
  8
I-UNIT
  5
7DA
  0
POLYLINE
  8
I-UNIT
  5
7DB
 66
     1
 10
0.0
 20
0.0
 30
0.0
 70
    48
 71
     2
 72
     4
  0
VERTEX
  8
I-UNIT
  5
7DC
 10
873.093691
 20
658.854147
 30
50.0
 70
    64
  0
VERTEX
  8
I-UNIT
  5
7DD
 10
873.093691
 20
683.854147
 30
50.0
 70
    64
  0
VERTEX
  8
I-UNIT
  5
7DE
 10
863.093691
 20
683.854147
 30
50.0
 70
    64
  0
VERTEX
  8
I-UNIT
  5
7DF
 10
863.093691
 20
658.854147
 30
50.0
 70
    64
  0
VERTEX
  8
I-UNIT
  5
7E0
 10
873.093691
 20
658.854147
 30
-1893.0
 70
    64
  0
VERTEX
  8
I-UNIT
  5
7E1
 10
873.093691
 20
683.854147
 30
-1893.0
 70
    64
  0
VERTEX
  8
I-UNIT
  5
7E2
 10
863.093691
 20
683.854147
 30
-1893.0
 70
    64
  0
VERTEX
  8
I-UNIT
  5
7E3
 10
863.093691
 20
658.854147
 30
-1893.0
 70
    64
  0
SEQEND
  8
I-UNIT
  5
7E4
  0
POLYLINE
  8
I-UNIT
  5
7E5
 66
     1
 10
0.0
 20
0.0
 30
0.0
 70
    48
 71
     2
 72
     4
  0
VERTEX
  8
I-UNIT
  5
7E6
 10
853.093691
 20
283.854147
 30
50.0
 70
    64
  0
VERTEX
  8
I-UNIT
  5
7E7
 10
853.093691
 20
308.854147
 30
50.0
 70
    64
  0
VERTEX
  8
I-UNIT
  5
7E8
 10
843.093691
 20
308.854147
 30
50.0
 70
    64
  0
VERTEX
  8
I-UNIT
  5
7E9
 10
843.093691
 20
283.854147
 30
50.0
 70
    64
  0
VERTEX
  8
I-UNIT
  5
7EA
 10
853.093691
 20
283.854147
 30
-1893.0
 70
    64
  0
VERTEX
  8
I-UNIT
  5
7EB
 10
853.093691
 20
308.854147
 30
-1893.0
 70
    64
  0
VERTEX
  8
I-UNIT
  5
7EC
 10
843.093691
 20
308.854147
 30
-1893.0
 70
    64
  0
VERTEX
  8
I-UNIT
  5
7ED
 10
843.093691
 20
283.854147
 30
-1893.0
 70
    64
  0
SEQEND
  8
I-UNIT
  5
7EE
  0
POLYLINE
  8
I-UNIT
  5
7EF
 66
     1
 10
0.0
 20
0.0
 30
0.0
 70
    48
 71
     2
 72
     4
  0
VERTEX
  8
I-UNIT
  5
7F0
 10
873.093691
 20
283.854147
 30
50.0
 70
    64
  0
VERTEX
  8
I-UNIT
  5
7F1
 10
873.093691
 20
308.854147
 30
50.0
 70
    64
  0
VERTEX
  8
I-UNIT
  5
7F2
 10
863.093691
 20
308.854147
 30
50.0
 70
    64
  0
VERTEX
  8
I-UNIT
  5
7F3
 10
863.093691
 20
283.854147
 30
50.0
 70
    64
  0
VERTEX
  8
I-UNIT
  5
7F4
 10
873.093691
 20
283.854147
 30
-1893.0
 70
    64
  0
VERTEX
  8
I-UNIT
  5
7F5
 10
873.093691
 20
308.854147
 30
-1893.0
 70
    64
  0
VERTEX
  8
I-UNIT
  5
7F6
 10
863.093691
 20
308.854147
 30
-1893.0
 70
    64
  0
VERTEX
  8
I-UNIT
  5
7F7
 10
863.093691
 20
283.854147
 30
-1893.0
 70
    64
  0
SEQEND
  8
I-UNIT
  5
7F8
  0
POLYLINE
  8
I-UNIT
  5
7F9
 66
     1
 10
0.0
 20
0.0
 30
0.0
 70
    48
 71
     2
 72
     4
  0
VERTEX
  8
I-UNIT
  5
7FA
 10
1683.093691
 20
283.854147
 30
50.0
 70
    64
  0
VERTEX
  8
I-UNIT
  5
7FB
 10
1683.093691
 20
308.854147
 30
50.0
 70
    64
  0
VERTEX
  8
I-UNIT
  5
7FC
 10
1673.093691
 20
308.854147
 30
50.0
 70
    64
  0
VERTEX
  8
I-UNIT
  5
7FD
 10
1673.093691
 20
283.854147
 30
50.0
 70
    64
  0
VERTEX
  8
I-UNIT
  5
7FE
 10
1683.093691
 20
283.854147
 30
-1893.0
 70
    64
  0
VERTEX
  8
I-UNIT
  5
7FF
 10
1683.093691
 20
308.854147
 30
-1893.0
 70
    64
  0
VERTEX
  8
I-UNIT
  5
800
 10
1673.093691
 20
308.854147
 30
-1893.0
 70
    64
  0
VERTEX
  8
I-UNIT
  5
801
 10
1673.093691
 20
283.854147
 30
-1893.0
 70
    64
  0
SEQEND
  8
I-UNIT
  5
802
  0
POLYLINE
  8
I-UNIT
  5
803
 66
     1
 10
0.0
 20
0.0
 30
0.0
 70
    48
 71
     2
 72
     4
  0
VERTEX
  8
I-UNIT
  5
804
 10
1703.093691
 20
283.854147
 30
50.0
 70
    64
  0
VERTEX
  8
I-UNIT
  5
805
 10
1703.093691
 20
308.854147
 30
50.0
 70
    64
  0
VERTEX
  8
I-UNIT
  5
806
 10
1693.093691
 20
308.854147
 30
50.0
 70
    64
  0
VERTEX
  8
I-UNIT
  5
807
 10
1693.093691
 20
283.854147
 30
50.0
 70
    64
  0
VERTEX
  8
I-UNIT
  5
808
 10
1703.093691
 20
283.854147
 30
-1893.0
 70
    64
  0
VERTEX
  8
I-UNIT
  5
809
 10
1703.093691
 20
308.854147
 30
-1893.0
 70
    64
  0
VERTEX
  8
I-UNIT
  5
80A
 10
1693.093691
 20
308.854147
 30
-1893.0
 70
    64
  0
VERTEX
  8
I-UNIT
  5
80B
 10
1693.093691
 20
283.854147
 30
-1893.0
 70
    64
  0
SEQEND
  8
I-UNIT
  5
80C
  0
POLYLINE
  8
I-UNIT
  5
80D
 66
     1
 10
0.0
 20
0.0
 30
0.0
 70
    48
 71
     2
 72
     4
  0
VERTEX
  8
I-UNIT
  5
80E
 10
1683.093691
 20
658.854147
 30
50.0
 70
    64
  0
VERTEX
  8
I-UNIT
  5
80F
 10
1683.093691
 20
683.854147
 30
50.0
 70
    64
  0
VERTEX
  8
I-UNIT
  5
810
 10
1673.093691
 20
683.854147
 30
50.0
 70
    64
  0
VERTEX
  8
I-UNIT
  5
811
 10
1673.093691
 20
658.854147
 30
50.0
 70
    64
  0
VERTEX
  8
I-UNIT
  5
812
 10
1683.093691
 20
658.854147
 30
-1893.0
 70
    64
  0
VERTEX
  8
I-UNIT
  5
813
 10
1683.093691
 20
683.854147
 30
-1893.0
 70
    64
  0
VERTEX
  8
I-UNIT
  5
814
 10
1673.093691
 20
683.854147
 30
-1893.0
 70
    64
  0
VERTEX
  8
I-UNIT
  5
815
 10
1673.093691
 20
658.854147
 30
-1893.0
 70
    64
  0
SEQEND
  8
I-UNIT
  5
816
  0
POLYLINE
  8
I-UNIT
  5
817
 66
     1
 10
0.0
 20
0.0
 30
0.0
 70
    48
 71
     2
 72
     4
  0
VERTEX
  8
I-UNIT
  5
818
 10
1703.093691
 20
658.854147
 30
50.0
 70
    64
  0
VERTEX
  8
I-UNIT
  5
819
 10
1703.093691
 20
683.854147
 30
50.0
 70
    64
  0
VERTEX
  8
I-UNIT
  5
81A
 10
1693.093691
 20
683.854147
 30
50.0
 70
    64
  0
VERTEX
  8
I-UNIT
  5
81B
 10
1693.093691
 20
658.854147
 30
50.0
 70
    64
  0
VERTEX
  8
I-UNIT
  5
81C
 10
1703.093691
 20
658.854147
 30
-1893.0
 70
    64
  0
VERTEX
  8
I-UNIT
  5
81D
 10
1703.093691
 20
683.854147
 30
-1893.0
 70
    64
  0
VERTEX
  8
I-UNIT
  5
81E
 10
1693.093691
 20
683.854147
 30
-1893.0
 70
    64
  0
VERTEX
  8
I-UNIT
  5
81F
 10
1693.093691
 20
658.854147
 30
-1893.0
 70
    64
  0
SEQEND
  8
I-UNIT
  5
820
  0
POLYLINE
  8
I-UNIT
  5
821
 66
     1
 10
0.0
 20
0.0
 30
0.0
 70
    48
 71
     2
 72
     4
  0
VERTEX
  8
I-UNIT
  5
822
 10
2123.093691
 20
283.854147
 30
-950.0
 70
    64
  0
VERTEX
  8
I-UNIT
  5
823
 10
2123.093691
 20
308.854147
 30
-950.0
 70
    64
  0
VERTEX
  8
I-UNIT
  5
824
 10
2113.093691
 20
308.854147
 30
-950.0
 70
    64
  0
VERTEX
  8
I-UNIT
  5
825
 10
2113.093691
 20
283.854147
 30
-950.0
 70
    64
  0
VERTEX
  8
I-UNIT
  5
826
 10
2123.093691
 20
283.854147
 30
-1893.0
 70
    64
  0
VERTEX
  8
I-UNIT
  5
827
 10
2123.093691
 20
308.854147
 30
-1893.0
 70
    64
  0
VERTEX
  8
I-UNIT
  5
828
 10
2113.093691
 20
308.854147
 30
-1893.0
 70
    64
  0
VERTEX
  8
I-UNIT
  5
829
 10
2113.093691
 20
283.854147
 30
-1893.0
 70
    64
  0
SEQEND
  8
I-UNIT
  5
82A
  0
POLYLINE
  8
I-UNIT
  5
82B
 66
     1
 10
0.0
 20
0.0
 30
0.0
 70
    48
 71
     2
 72
     4
  0
VERTEX
  8
I-UNIT
  5
82C
 10
2103.093691
 20
283.854147
 30
-950.0
 70
    64
  0
VERTEX
  8
I-UNIT
  5
82D
 10
2103.093691
 20
308.854147
 30
-950.0
 70
    64
  0
VERTEX
  8
I-UNIT
  5
82E
 10
2093.093691
 20
308.854147
 30
-950.0
 70
    64
  0
VERTEX
  8
I-UNIT
  5
82F
 10
2093.093691
 20
283.854147
 30
-950.0
 70
    64
  0
VERTEX
  8
I-UNIT
  5
830
 10
2103.093691
 20
283.854147
 30
-1893.0
 70
    64
  0
VERTEX
  8
I-UNIT
  5
831
 10
2103.093691
 20
308.854147
 30
-1893.0
 70
    64
  0
VERTEX
  8
I-UNIT
  5
832
 10
2093.093691
 20
308.854147
 30
-1893.0
 70
    64
  0
VERTEX
  8
I-UNIT
  5
833
 10
2093.093691
 20
283.854147
 30
-1893.0
 70
    64
  0
SEQEND
  8
I-UNIT
  5
834
  0
POLYLINE
  8
I-UNIT
  5
835
 66
     1
 10
0.0
 20
0.0
 30
0.0
 70
    48
 71
     2
 72
     4
  0
VERTEX
  8
I-UNIT
  5
836
 10
2123.093691
 20
658.854147
 30
-950.0
 70
    64
  0
VERTEX
  8
I-UNIT
  5
837
 10
2123.093691
 20
683.854147
 30
-950.0
 70
    64
  0
VERTEX
  8
I-UNIT
  5
838
 10
2113.093691
 20
683.854147
 30
-950.0
 70
    64
  0
VERTEX
  8
I-UNIT
  5
839
 10
2113.093691
 20
658.854147
 30
-950.0
 70
    64
  0
VERTEX
  8
I-UNIT
  5
83A
 10
2123.093691
 20
658.854147
 30
-1893.0
 70
    64
  0
VERTEX
  8
I-UNIT
  5
83B
 10
2123.093691
 20
683.854147
 30
-1893.0
 70
    64
  0
VERTEX
  8
I-UNIT
  5
83C
 10
2113.093691
 20
683.854147
 30
-1893.0
 70
    64
  0
VERTEX
  8
I-UNIT
  5
83D
 10
2113.093691
 20
658.854147
 30
-1893.0
 70
    64
  0
SEQEND
  8
I-UNIT
  5
83E
  0
POLYLINE
  8
I-UNIT
  5
83F
 66
     1
 10
0.0
 20
0.0
 30
0.0
 70
    48
 71
     2
 72
     4
  0
VERTEX
  8
I-UNIT
  5
840
 10
2103.093691
 20
658.854147
 30
-950.0
 70
    64
  0
VERTEX
  8
I-UNIT
  5
841
 10
2103.093691
 20
683.854147
 30
-950.0
 70
    64
  0
VERTEX
  8
I-UNIT
  5
842
 10
2093.093691
 20
683.854147
 30
-950.0
 70
    64
  0
VERTEX
  8
I-UNIT
  5
843
 10
2093.093691
 20
658.854147
 30
-950.0
 70
    64
  0
VERTEX
  8
I-UNIT
  5
844
 10
2103.093691
 20
658.854147
 30
-1893.0
 70
    64
  0
VERTEX
  8
I-UNIT
  5
845
 10
2103.093691
 20
683.854147
 30
-1893.0
 70
    64
  0
VERTEX
  8
I-UNIT
  5
846
 10
2093.093691
 20
683.854147
 30
-1893.0
 70
    64
  0
VERTEX
  8
I-UNIT
  5
847
 10
2093.093691
 20
658.854147
 30
-1893.0
 70
    64
  0
SEQEND
  8
I-UNIT
  5
848
  0
3DFACE
  8
I-UNIT
  5
849
 10
1693.093691
 20
330.729147
 30
-1500.0
 11
1693.093691
 21
330.729147
 31
-1510.0
 12
2093.093691
 22
330.729147
 32
-1510.0
 13
2093.093691
 23
330.729147
 33
-1500.0
  0
3DFACE
  8
I-UNIT
  5
84A
 10
1693.093691
 20
352.604147
 30
-1500.0
 11
1693.093691
 21
352.604147
 31
-1510.0
 12
2093.093691
 22
352.604147
 32
-1510.0
 13
2093.093691
 23
352.604147
 33
-1500.0
  0
3DFACE
  8
I-UNIT
  5
84C
 10
1693.093691
 20
527.604147
 30
-1500.0
 11
1693.093691
 21
527.604147
 31
-1510.0
 12
2093.093691
 22
527.604147
 32
-1510.0
 13
2093.093691
 23
527.604147
 33
-1500.0
  0
3DFACE
  8
I-UNIT
  5
84D
 10
1693.093691
 20
396.354147
 30
-1500.0
 11
1693.093691
 21
396.354147
 31
-1510.0
 12
2093.093691
 22
396.354147
 32
-1510.0
 13
2093.093691
 23
396.354147
 33
-1500.0
  0
3DFACE
  8
I-UNIT
  5
84F
 10
1693.093691
 20
440.104147
 30
-1500.0
 11
1693.093691
 21
440.104147
 31
-1510.0
 12
2093.093691
 22
440.104147
 32
-1510.0
 13
2093.093691
 23
440.104147
 33
-1500.0
  0
3DFACE
  8
I-UNIT
  5
851
 10
1693.093691
 20
483.854147
 30
-1500.0
 11
1693.093691
 21
483.854147
 31
-1510.0
 12
2093.093691
 22
483.854147
 32
-1510.0
 13
2093.093691
 23
483.854147
 33
-1500.0
  0
3DFACE
  8
I-UNIT
  5
853
 10
1693.093691
 20
636.979147
 30
-1500.0
 11
1693.093691
 21
636.979147
 31
-1510.0
 12
2093.093691
 22
636.979147
 32
-1510.0
 13
2093.093691
 23
636.979147
 33
-1500.0
  0
3DFACE
  8
I-UNIT
  5
854
 10
1693.093691
 20
615.104147
 30
-1500.0
 11
1693.093691
 21
615.104147
 31
-1510.0
 12
2093.093691
 22
615.104147
 32
-1510.0
 13
2093.093691
 23
615.104147
 33
-1500.0
  0
3DFACE
  8
I-UNIT
  5
856
 10
1693.093691
 20
571.354147
 30
-1500.0
 11
1693.093691
 21
571.354147
 31
-1510.0
 12
2093.093691
 22
571.354147
 32
-1510.0
 13
2093.093691
 23
571.354147
 33
-1500.0
  0
LINE
  8
I-UNIT
  5
858
 10
1663.093691
 20
658.854147
 30
-1490.0
 11
2123.093691
 21
658.854147
 31
-1490.0
210
0.0
220
-1.0
230
0.0
  0
POLYLINE
  8
I-UNIT
  5
859
 66
     1
 10
0.0
 20
0.0
 30
0.0
 70
    48
 71
     2
 72
     4
  0
VERTEX
  8
I-UNIT
  5
85A
 10
1663.093691
 20
658.854147
 30
-1490.0
 70
    64
  0
VERTEX
  8
I-UNIT
  5
85B
 10
1663.093691
 20
648.854147
 30
-1490.0
 70
    64
  0
VERTEX
  8
I-UNIT
  5
85C
 10
1663.093691
 20
648.854147
 30
-1500.0
 70
    64
  0
VERTEX
  8
I-UNIT
  5
85D
 10
1663.093691
 20
658.854147
 30
-1500.0
 70
    64
  0
VERTEX
  8
I-UNIT
  5
85E
 10
2123.093691
 20
658.854147
 30
-1490.0
 70
    64
  0
VERTEX
  8
I-UNIT
  5
85F
 10
2123.093691
 20
648.854147
 30
-1490.0
 70
    64
  0
VERTEX
  8
I-UNIT
  5
860
 10
2123.093691
 20
648.854147
 30
-1500.0
 70
    64
  0
VERTEX
  8
I-UNIT
  5
861
 10
2123.093691
 20
658.854147
 30
-1500.0
 70
    64
  0
SEQEND
  8
I-UNIT
  5
862
  0
POLYLINE
  8
I-UNIT
  5
863
 66
     1
 10
0.0
 20
0.0
 30
0.0
 70
    48
 71
     2
 72
     4
  0
VERTEX
  8
I-UNIT
  5
864
 10
1663.093691
 20
658.854147
 30
-1510.0
 70
    64
  0
VERTEX
  8
I-UNIT
  5
865
 10
1663.093691
 20
648.854147
 30
-1510.0
 70
    64
  0
VERTEX
  8
I-UNIT
  5
866
 10
1663.093691
 20
648.854147
 30
-1520.0
 70
    64
  0
VERTEX
  8
I-UNIT
  5
867
 10
1663.093691
 20
658.854147
 30
-1520.0
 70
    64
  0
VERTEX
  8
I-UNIT
  5
868
 10
2123.093691
 20
658.854147
 30
-1510.0
 70
    64
  0
VERTEX
  8
I-UNIT
  5
869
 10
2123.093691
 20
648.854147
 30
-1510.0
 70
    64
  0
VERTEX
  8
I-UNIT
  5
86A
 10
2123.093691
 20
648.854147
 30
-1520.0
 70
    64
  0
VERTEX
  8
I-UNIT
  5
86B
 10
2123.093691
 20
658.854147
 30
-1520.0
 70
    64
  0
SEQEND
  8
I-UNIT
  5
86C
  0
POLYLINE
  8
I-UNIT
  5
86D
 66
     1
 10
0.0
 20
0.0
 30
0.0
 70
    48
 71
     2
 72
     4
  0
VERTEX
  8
I-UNIT
  5
86E
 10
1663.093691
 20
318.854147
 30
-1510.0
 70
    64
  0
VERTEX
  8
I-UNIT
  5
86F
 10
1663.093691
 20
308.854147
 30
-1510.0
 70
    64
  0
VERTEX
  8
I-UNIT
  5
870
 10
1663.093691
 20
308.854147
 30
-1520.0
 70
    64
  0
VERTEX
  8
I-UNIT
  5
871
 10
1663.093691
 20
318.854147
 30
-1520.0
 70
    64
  0
VERTEX
  8
I-UNIT
  5
872
 10
2123.093691
 20
318.854147
 30
-1510.0
 70
    64
  0
VERTEX
  8
I-UNIT
  5
873
 10
2123.093691
 20
308.854147
 30
-1510.0
 70
    64
  0
VERTEX
  8
I-UNIT
  5
874
 10
2123.093691
 20
308.854147
 30
-1520.0
 70
    64
  0
VERTEX
  8
I-UNIT
  5
875
 10
2123.093691
 20
318.854147
 30
-1520.0
 70
    64
  0
SEQEND
  8
I-UNIT
  5
876
  0
POLYLINE
  8
I-UNIT
  5
877
 66
     1
 10
0.0
 20
0.0
 30
0.0
 70
    48
 71
     2
 72
     4
  0
VERTEX
  8
I-UNIT
  5
878
 10
1663.093691
 20
318.854147
 30
-1490.0
 70
    64
  0
VERTEX
  8
I-UNIT
  5
879
 10
1663.093691
 20
308.854147
 30
-1490.0
 70
    64
  0
VERTEX
  8
I-UNIT
  5
87A
 10
1663.093691
 20
308.854147
 30
-1500.0
 70
    64
  0
VERTEX
  8
I-UNIT
  5
87B
 10
1663.093691
 20
318.854147
 30
-1500.0
 70
    64
  0
VERTEX
  8
I-UNIT
  5
87C
 10
2123.093691
 20
318.854147
 30
-1490.0
 70
    64
  0
VERTEX
  8
I-UNIT
  5
87D
 10
2123.093691
 20
308.854147
 30
-1490.0
 70
    64
  0
VERTEX
  8
I-UNIT
  5
87E
 10
2123.093691
 20
308.854147
 30
-1500.0
 70
    64
  0
VERTEX
  8
I-UNIT
  5
87F
 10
2123.093691
 20
318.854147
 30
-1500.0
 70
    64
  0
SEQEND
  8
I-UNIT
  5
880
  0
POLYLINE
  8
I-UNIT
  5
881
 66
     1
 10
0.0
 20
0.0
 30
0.0
 70
    48
 71
     2
 72
     4
  0
VERTEX
  8
I-UNIT
  5
882
 10
1888.093691
 20
308.854147
 30
-1500.0
 70
    64
  0
VERTEX
  8
I-UNIT
  5
883
 10
1898.093691
 20
308.854147
 30
-1500.0
 70
    64
  0
VERTEX
  8
I-UNIT
  5
884
 10
1898.093691
 20
308.854147
 30
-1510.0
 70
    64
  0
VERTEX
  8
I-UNIT
  5
885
 10
1888.093691
 20
308.854147
 30
-1510.0
 70
    64
  0
VERTEX
  8
I-UNIT
  5
886
 10
1888.093691
 20
658.854147
 30
-1500.0
 70
    64
  0
VERTEX
  8
I-UNIT
  5
887
 10
1898.093691
 20
658.854147
 30
-1500.0
 70
    64
  0
VERTEX
  8
I-UNIT
  5
888
 10
1898.093691
 20
658.854147
 30
-1510.0
 70
    64
  0
VERTEX
  8
I-UNIT
  5
889
 10
1888.093691
 20
658.854147
 30
-1510.0
 70
    64
  0
SEQEND
  8
I-UNIT
  5
88A
  0
POLYLINE
  8
I-UNIT
  5
88B
 66
     1
 10
0.0
 20
0.0
 30
-308.854147
 70
     1
210
0.0
220
-1.0
230
0.0
  0
VERTEX
  8
I-UNIT
  5
88C
 10
1888.093691
 20
-1510.0
 30
-308.854147
  0
VERTEX
  8
I-UNIT
  5
88D
 10
1888.093691
 20
-1500.0
 30
-308.854147
  0
VERTEX
  8
I-UNIT
  5
88E
 10
1898.093691
 20
-1500.0
 30
-308.854147
  0
VERTEX
  8
I-UNIT
  5
88F
 10
1898.093691
 20
-1510.0
 30
-308.854147
  0
SEQEND
  8
I-UNIT
  5
890
  0
POLYLINE
  8
I-UNIT
  5
891
 66
     1
 10
0.0
 20
0.0
 30
0.0
 70
    48
 71
     2
 72
     4
  0
VERTEX
  8
I-UNIT
  5
892
 10
2093.093691
 20
308.854147
 30
-1500.0
 70
    64
  0
VERTEX
  8
I-UNIT
  5
893
 10
2103.093691
 20
308.854147
 30
-1500.0
 70
    64
  0
VERTEX
  8
I-UNIT
  5
894
 10
2103.093691
 20
308.854147
 30
-1510.0
 70
    64
  0
VERTEX
  8
I-UNIT
  5
895
 10
2093.093691
 20
308.854147
 30
-1510.0
 70
    64
  0
VERTEX
  8
I-UNIT
  5
896
 10
2093.093691
 20
658.854147
 30
-1500.0
 70
    64
  0
VERTEX
  8
I-UNIT
  5
897
 10
2103.093691
 20
658.854147
 30
-1500.0
 70
    64
  0
VERTEX
  8
I-UNIT
  5
898
 10
2103.093691
 20
658.854147
 30
-1510.0
 70
    64
  0
VERTEX
  8
I-UNIT
  5
899
 10
2093.093691
 20
658.854147
 30
-1510.0
 70
    64
  0
SEQEND
  8
I-UNIT
  5
89A
  0
POLYLINE
  8
I-UNIT
  5
89B
 66
     1
 10
0.0
 20
0.0
 30
-308.854147
 70
     1
210
0.0
220
-1.0
230
0.0
  0
VERTEX
  8
I-UNIT
  5
89C
 10
2093.093691
 20
-1510.0
 30
-308.854147
  0
VERTEX
  8
I-UNIT
  5
89D
 10
2093.093691
 20
-1500.0
 30
-308.854147
  0
VERTEX
  8
I-UNIT
  5
89E
 10
2103.093691
 20
-1500.0
 30
-308.854147
  0
VERTEX
  8
I-UNIT
  5
89F
 10
2103.093691
 20
-1510.0
 30
-308.854147
  0
SEQEND
  8
I-UNIT
  5
8A0
  0
POLYLINE
  8
I-UNIT
  5
8A1
 66
     1
 10
0.0
 20
0.0
 30
0.0
 70
    48
 71
     2
 72
     4
  0
VERTEX
  8
I-UNIT
  5
8A2
 10
1693.093691
 20
308.854147
 30
-1500.0
 70
    64
  0
VERTEX
  8
I-UNIT
  5
8A3
 10
1703.093691
 20
308.854147
 30
-1500.0
 70
    64
  0
VERTEX
  8
I-UNIT
  5
8A4
 10
1703.093691
 20
308.854147
 30
-1510.0
 70
    64
  0
VERTEX
  8
I-UNIT
  5
8A5
 10
1693.093691
 20
308.854147
 30
-1510.0
 70
    64
  0
VERTEX
  8
I-UNIT
  5
8A6
 10
1693.093691
 20
658.854147
 30
-1500.0
 70
    64
  0
VERTEX
  8
I-UNIT
  5
8A7
 10
1703.093691
 20
658.854147
 30
-1500.0
 70
    64
  0
VERTEX
  8
I-UNIT
  5
8A8
 10
1703.093691
 20
658.854147
 30
-1510.0
 70
    64
  0
VERTEX
  8
I-UNIT
  5
8A9
 10
1693.093691
 20
658.854147
 30
-1510.0
 70
    64
  0
SEQEND
  8
I-UNIT
  5
8AA
  0
3DFACE
  8
I-UNIT
  5
8AB
 10
1693.093691
 20
330.729147
 30
-1833.333333
 11
1693.093691
 21
330.729147
 31
-1843.333333
 12
2093.093691
 22
330.729147
 32
-1843.333333
 13
2093.093691
 23
330.729147
 33
-1833.333333
  0
3DFACE
  8
I-UNIT
  5
8AC
 10
1693.093691
 20
352.604147
 30
-1833.333333
 11
1693.093691
 21
352.604147
 31
-1843.333333
 12
2093.093691
 22
352.604147
 32
-1843.333333
 13
2093.093691
 23
352.604147
 33
-1833.333333
  0
3DFACE
  8
I-UNIT
  5
8AE
 10
1693.093691
 20
527.604147
 30
-1833.333333
 11
1693.093691
 21
527.604147
 31
-1843.333333
 12
2093.093691
 22
527.604147
 32
-1843.333333
 13
2093.093691
 23
527.604147
 33
-1833.333333
  0
3DFACE
  8
I-UNIT
  5
8AF
 10
1693.093691
 20
396.354147
 30
-1833.333333
 11
1693.093691
 21
396.354147
 31
-1843.333333
 12
2093.093691
 22
396.354147
 32
-1843.333333
 13
2093.093691
 23
396.354147
 33
-1833.333333
  0
3DFACE
  8
I-UNIT
  5
8B1
 10
1693.093691
 20
440.104147
 30
-1833.333333
 11
1693.093691
 21
440.104147
 31
-1843.333333
 12
2093.093691
 22
440.104147
 32
-1843.333333
 13
2093.093691
 23
440.104147
 33
-1833.333333
  0
3DFACE
  8
I-UNIT
  5
8B3
 10
1693.093691
 20
483.854147
 30
-1833.333333
 11
1693.093691
 21
483.854147
 31
-1843.333333
 12
2093.093691
 22
483.854147
 32
-1843.333333
 13
2093.093691
 23
483.854147
 33
-1833.333333
  0
3DFACE
  8
I-UNIT
  5
8B5
 10
1693.093691
 20
636.979147
 30
-1833.333333
 11
1693.093691
 21
636.979147
 31
-1843.333333
 12
2093.093691
 22
636.979147
 32
-1843.333333
 13
2093.093691
 23
636.979147
 33
-1833.333333
  0
3DFACE
  8
I-UNIT
  5
8B6
 10
1693.093691
 20
615.104147
 30
-1833.333333
 11
1693.093691
 21
615.104147
 31
-1843.333333
 12
2093.093691
 22
615.104147
 32
-1843.333333
 13
2093.093691
 23
615.104147
 33
-1833.333333
  0
3DFACE
  8
I-UNIT
  5
8B8
 10
1693.093691
 20
571.354147
 30
-1833.333333
 11
1693.093691
 21
571.354147
 31
-1843.333333
 12
2093.093691
 22
571.354147
 32
-1843.333333
 13
2093.093691
 23
571.354147
 33
-1833.333333
  0
LINE
  8
I-UNIT
  5
8BA
 10
1663.093691
 20
658.854147
 30
-1823.333333
 11
2123.093691
 21
658.854147
 31
-1823.333333
210
0.0
220
-1.0
230
0.0
  0
POLYLINE
  8
I-UNIT
  5
8BB
 66
     1
 10
0.0
 20
0.0
 30
0.0
 70
    48
 71
     2
 72
     4
  0
VERTEX
  8
I-UNIT
  5
8BC
 10
1663.093691
 20
658.854147
 30
-1823.333333
 70
    64
  0
VERTEX
  8
I-UNIT
  5
8BD
 10
1663.093691
 20
648.854147
 30
-1823.333333
 70
    64
  0
VERTEX
  8
I-UNIT
  5
8BE
 10
1663.093691
 20
648.854147
 30
-1833.333333
 70
    64
  0
VERTEX
  8
I-UNIT
  5
8BF
 10
1663.093691
 20
658.854147
 30
-1833.333333
 70
    64
  0
VERTEX
  8
I-UNIT
  5
8C0
 10
2123.093691
 20
658.854147
 30
-1823.333333
 70
    64
  0
VERTEX
  8
I-UNIT
  5
8C1
 10
2123.093691
 20
648.854147
 30
-1823.333333
 70
    64
  0
VERTEX
  8
I-UNIT
  5
8C2
 10
2123.093691
 20
648.854147
 30
-1833.333333
 70
    64
  0
VERTEX
  8
I-UNIT
  5
8C3
 10
2123.093691
 20
658.854147
 30
-1833.333333
 70
    64
  0
SEQEND
  8
I-UNIT
  5
8C4
  0
POLYLINE
  8
I-UNIT
  5
8C5
 66
     1
 10
0.0
 20
0.0
 30
0.0
 70
    48
 71
     2
 72
     4
  0
VERTEX
  8
I-UNIT
  5
8C6
 10
1663.093691
 20
658.854147
 30
-1843.333333
 70
    64
  0
VERTEX
  8
I-UNIT
  5
8C7
 10
1663.093691
 20
648.854147
 30
-1843.333333
 70
    64
  0
VERTEX
  8
I-UNIT
  5
8C8
 10
1663.093691
 20
648.854147
 30
-1853.333333
 70
    64
  0
VERTEX
  8
I-UNIT
  5
8C9
 10
1663.093691
 20
658.854147
 30
-1853.333333
 70
    64
  0
VERTEX
  8
I-UNIT
  5
8CA
 10
2123.093691
 20
658.854147
 30
-1843.333333
 70
    64
  0
VERTEX
  8
I-UNIT
  5
8CB
 10
2123.093691
 20
648.854147
 30
-1843.333333
 70
    64
  0
VERTEX
  8
I-UNIT
  5
8CC
 10
2123.093691
 20
648.854147
 30
-1853.333333
 70
    64
  0
VERTEX
  8
I-UNIT
  5
8CD
 10
2123.093691
 20
658.854147
 30
-1853.333333
 70
    64
  0
SEQEND
  8
I-UNIT
  5
8CE
  0
POLYLINE
  8
I-UNIT
  5
8CF
 66
     1
 10
0.0
 20
0.0
 30
0.0
 70
    48
 71
     2
 72
     4
  0
VERTEX
  8
I-UNIT
  5
8D0
 10
1663.093691
 20
318.854147
 30
-1843.333333
 70
    64
  0
VERTEX
  8
I-UNIT
  5
8D1
 10
1663.093691
 20
308.854147
 30
-1843.333333
 70
    64
  0
VERTEX
  8
I-UNIT
  5
8D2
 10
1663.093691
 20
308.854147
 30
-1853.333333
 70
    64
  0
VERTEX
  8
I-UNIT
  5
8D3
 10
1663.093691
 20
318.854147
 30
-1853.333333
 70
    64
  0
VERTEX
  8
I-UNIT
  5
8D4
 10
2123.093691
 20
318.854147
 30
-1843.333333
 70
    64
  0
VERTEX
  8
I-UNIT
  5
8D5
 10
2123.093691
 20
308.854147
 30
-1843.333333
 70
    64
  0
VERTEX
  8
I-UNIT
  5
8D6
 10
2123.093691
 20
308.854147
 30
-1853.333333
 70
    64
  0
VERTEX
  8
I-UNIT
  5
8D7
 10
2123.093691
 20
318.854147
 30
-1853.333333
 70
    64
  0
SEQEND
  8
I-UNIT
  5
8D8
  0
POLYLINE
  8
I-UNIT
  5
8D9
 66
     1
 10
0.0
 20
0.0
 30
0.0
 70
    48
 71
     2
 72
     4
  0
VERTEX
  8
I-UNIT
  5
8DA
 10
1663.093691
 20
318.854147
 30
-1823.333333
 70
    64
  0
VERTEX
  8
I-UNIT
  5
8DB
 10
1663.093691
 20
308.854147
 30
-1823.333333
 70
    64
  0
VERTEX
  8
I-UNIT
  5
8DC
 10
1663.093691
 20
308.854147
 30
-1833.333333
 70
    64
  0
VERTEX
  8
I-UNIT
  5
8DD
 10
1663.093691
 20
318.854147
 30
-1833.333333
 70
    64
  0
VERTEX
  8
I-UNIT
  5
8DE
 10
2123.093691
 20
318.854147
 30
-1823.333333
 70
    64
  0
VERTEX
  8
I-UNIT
  5
8DF
 10
2123.093691
 20
308.854147
 30
-1823.333333
 70
    64
  0
VERTEX
  8
I-UNIT
  5
8E0
 10
2123.093691
 20
308.854147
 30
-1833.333333
 70
    64
  0
VERTEX
  8
I-UNIT
  5
8E1
 10
2123.093691
 20
318.854147
 30
-1833.333333
 70
    64
  0
SEQEND
  8
I-UNIT
  5
8E2
  0
POLYLINE
  8
I-UNIT
  5
8E3
 66
     1
 10
0.0
 20
0.0
 30
0.0
 70
    48
 71
     2
 72
     4
  0
VERTEX
  8
I-UNIT
  5
8E4
 10
1888.093691
 20
308.854147
 30
-1833.333333
 70
    64
  0
VERTEX
  8
I-UNIT
  5
8E5
 10
1898.093691
 20
308.854147
 30
-1833.333333
 70
    64
  0
VERTEX
  8
I-UNIT
  5
8E6
 10
1898.093691
 20
308.854147
 30
-1843.333333
 70
    64
  0
VERTEX
  8
I-UNIT
  5
8E7
 10
1888.093691
 20
308.854147
 30
-1843.333333
 70
    64
  0
VERTEX
  8
I-UNIT
  5
8E8
 10
1888.093691
 20
658.854147
 30
-1833.333333
 70
    64
  0
VERTEX
  8
I-UNIT
  5
8E9
 10
1898.093691
 20
658.854147
 30
-1833.333333
 70
    64
  0
VERTEX
  8
I-UNIT
  5
8EA
 10
1898.093691
 20
658.854147
 30
-1843.333333
 70
    64
  0
VERTEX
  8
I-UNIT
  5
8EB
 10
1888.093691
 20
658.854147
 30
-1843.333333
 70
    64
  0
SEQEND
  8
I-UNIT
  5
8EC
  0
POLYLINE
  8
I-UNIT
  5
8ED
 66
     1
 10
0.0
 20
0.0
 30
-308.854147
 70
     1
210
0.0
220
-1.0
230
0.0
  0
VERTEX
  8
I-UNIT
  5
8EE
 10
1888.093691
 20
-1843.333333
 30
-308.854147
  0
VERTEX
  8
I-UNIT
  5
8EF
 10
1888.093691
 20
-1833.333333
 30
-308.854147
  0
VERTEX
  8
I-UNIT
  5
8F0
 10
1898.093691
 20
-1833.333333
 30
-308.854147
  0
VERTEX
  8
I-UNIT
  5
8F1
 10
1898.093691
 20
-1843.333333
 30
-308.854147
  0
SEQEND
  8
I-UNIT
  5
8F2
  0
POLYLINE
  8
I-UNIT
  5
8F3
 66
     1
 10
0.0
 20
0.0
 30
0.0
 70
    48
 71
     2
 72
     4
  0
VERTEX
  8
I-UNIT
  5
8F4
 10
2093.093691
 20
308.854147
 30
-1833.333333
 70
    64
  0
VERTEX
  8
I-UNIT
  5
8F5
 10
2103.093691
 20
308.854147
 30
-1833.333333
 70
    64
  0
VERTEX
  8
I-UNIT
  5
8F6
 10
2103.093691
 20
308.854147
 30
-1843.333333
 70
    64
  0
VERTEX
  8
I-UNIT
  5
8F7
 10
2093.093691
 20
308.854147
 30
-1843.333333
 70
    64
  0
VERTEX
  8
I-UNIT
  5
8F8
 10
2093.093691
 20
658.854147
 30
-1833.333333
 70
    64
  0
VERTEX
  8
I-UNIT
  5
8F9
 10
2103.093691
 20
658.854147
 30
-1833.333333
 70
    64
  0
VERTEX
  8
I-UNIT
  5
8FA
 10
2103.093691
 20
658.854147
 30
-1843.333333
 70
    64
  0
VERTEX
  8
I-UNIT
  5
8FB
 10
2093.093691
 20
658.854147
 30
-1843.333333
 70
    64
  0
SEQEND
  8
I-UNIT
  5
8FC
  0
POLYLINE
  8
I-UNIT
  5
8FD
 66
     1
 10
0.0
 20
0.0
 30
-308.854147
 70
     1
210
0.0
220
-1.0
230
0.0
  0
VERTEX
  8
I-UNIT
  5
8FE
 10
2093.093691
 20
-1843.333333
 30
-308.854147
  0
VERTEX
  8
I-UNIT
  5
8FF
 10
2093.093691
 20
-1833.333333
 30
-308.854147
  0
VERTEX
  8
I-UNIT
  5
900
 10
2103.093691
 20
-1833.333333
 30
-308.854147
  0
VERTEX
  8
I-UNIT
  5
901
 10
2103.093691
 20
-1843.333333
 30
-308.854147
  0
SEQEND
  8
I-UNIT
  5
902
  0
POLYLINE
  8
I-UNIT
  5
903
 66
     1
 10
0.0
 20
0.0
 30
0.0
 70
    48
 71
     2
 72
     4
  0
VERTEX
  8
I-UNIT
  5
904
 10
1693.093691
 20
308.854147
 30
-1833.333333
 70
    64
  0
VERTEX
  8
I-UNIT
  5
905
 10
1703.093691
 20
308.854147
 30
-1833.333333
 70
    64
  0
VERTEX
  8
I-UNIT
  5
906
 10
1703.093691
 20
308.854147
 30
-1843.333333
 70
    64
  0
VERTEX
  8
I-UNIT
  5
907
 10
1693.093691
 20
308.854147
 30
-1843.333333
 70
    64
  0
VERTEX
  8
I-UNIT
  5
908
 10
1693.093691
 20
658.854147
 30
-1833.333333
 70
    64
  0
VERTEX
  8
I-UNIT
  5
909
 10
1703.093691
 20
658.854147
 30
-1833.333333
 70
    64
  0
VERTEX
  8
I-UNIT
  5
90A
 10
1703.093691
 20
658.854147
 30
-1843.333333
 70
    64
  0
VERTEX
  8
I-UNIT
  5
90B
 10
1693.093691
 20
658.854147
 30
-1843.333333
 70
    64
  0
SEQEND
  8
I-UNIT
  5
90C
  0
LINE
  8
I-STAND
  5
90E
 10
843.093691
 20
308.854147
 30
-1893.0
 11
843.093691
 21
283.854147
 31
-1893.0
  0
LINE
  8
I-STAND
  5
90F
 10
843.093691
 20
283.854147
 30
-1893.0
 11
873.093691
 21
283.854147
 31
-1893.0
  0
LINE
  8
I-STAND
  5
910
 10
873.093691
 20
283.854147
 30
-1893.0
 11
873.093691
 21
308.854147
 31
-1893.0
  0
LINE
  8
I-STAND
  5
911
 10
873.093691
 20
308.854147
 30
-1893.0
 11
843.093691
 21
308.854147
 31
-1893.0
  0
LINE
  8
I-STAND
  5
912
 10
843.093691
 20
283.854147
 30
-1893.0
 11
843.093691
 21
283.854147
 31
-2043.0
  0
LINE
  8
I-STAND
  5
913
 10
843.093691
 20
308.854147
 30
-1893.0
 11
843.093691
 21
308.854147
 31
-2043.0
  0
LINE
  8
I-STAND
  5
914
 10
873.093691
 20
283.854147
 30
-1893.0
 11
873.093691
 21
283.854147
 31
-2043.0
  0
ARC
  8
I-STAND
  5
917
 10
858.093691
 20
296.354147
 30
-2043.0
 40
40.0
 50
180.0
 51
0.0
  0
LINE
  8
I-STAND
  5
918
 10
818.093691
 20
296.354147
 30
-2043.0
 11
898.093691
 21
296.354147
 31
-2043.0
  0
ARC
  8
I-STAND
  5
919
 10
858.093691
 20
296.354147
 30
-2043.0
 40
40.0
 50
0.0
 51
180.0
  0
ARC
  8
I-STAND
  5
91A
 10
858.093691
 20
296.354147
 30
-2050.0
 40
40.0
 50
180.0
 51
0.0
  0
ARC
  8
I-STAND
  5
91B
 10
858.093691
 20
296.354147
 30
-2050.0
 40
40.0
 50
0.0
 51
180.0
  0
POLYLINE
  8
I-STAND
  5
91C
 66
     1
 10
0.0
 20
0.0
 30
0.0
 70
    16
 71
     2
 72
    15
  0
VERTEX
  8
I-STAND
  5
91D
 10
818.093691
 20
296.354147
 30
-2043.0
 70
    64
  0
VERTEX
  8
I-STAND
  5
91E
 10
819.096574
 20
287.45331
 30
-2043.0
 70
    64
  0
VERTEX
  8
I-STAND
  5
91F
 10
822.054936
 20
278.998797
 30
-2043.0
 70
    64
  0
VERTEX
  8
I-STAND
  5
920
 10
826.820431
 20
271.414555
 30
-2043.0
 70
    64
  0
VERTEX
  8
I-STAND
  5
921
 10
833.154099
 20
265.080888
 30
-2043.0
 70
    64
  0
VERTEX
  8
I-STAND
  5
922
 10
840.738341
 20
260.315392
 30
-2043.0
 70
    64
  0
VERTEX
  8
I-STAND
  5
923
 10
849.192853
 20
257.35703
 30
-2043.0
 70
    64
  0
VERTEX
  8
I-STAND
  5
924
 10
858.093691
 20
256.354147
 30
-2043.0
 70
    64
  0
VERTEX
  8
I-STAND
  5
925
 10
866.994528
 20
257.35703
 30
-2043.0
 70
    64
  0
VERTEX
  8
I-STAND
  5
926
 10
875.44904
 20
260.315392
 30
-2043.0
 70
    64
  0
VERTEX
  8
I-STAND
  5
927
 10
883.033283
 20
265.080888
 30
-2043.0
 70
    64
  0
VERTEX
  8
I-STAND
  5
928
 10
889.36695
 20
271.414555
 30
-2043.0
 70
    64
  0
VERTEX
  8
I-STAND
  5
929
 10
894.132445
 20
278.998797
 30
-2043.0
 70
    64
  0
VERTEX
  8
I-STAND
  5
92A
 10
897.090807
 20
287.45331
 30
-2043.0
 70
    64
  0
VERTEX
  8
I-STAND
  5
92B
 10
898.093691
 20
296.354147
 30
-2043.0
 70
    64
  0
VERTEX
  8
I-STAND
  5
92C
 10
818.093691
 20
296.354147
 30
-2043.0
 70
    64
  0
VERTEX
  8
I-STAND
  5
92D
 10
819.096574
 20
305.254984
 30
-2043.0
 70
    64
  0
VERTEX
  8
I-STAND
  5
92E
 10
822.054936
 20
313.709496
 30
-2043.0
 70
    64
  0
VERTEX
  8
I-STAND
  5
92F
 10
826.820431
 20
321.293739
 30
-2043.0
 70
    64
  0
VERTEX
  8
I-STAND
  5
930
 10
833.154099
 20
327.627406
 30
-2043.0
 70
    64
  0
VERTEX
  8
I-STAND
  5
931
 10
840.738341
 20
332.392902
 30
-2043.0
 70
    64
  0
VERTEX
  8
I-STAND
  5
932
 10
849.192853
 20
335.351263
 30
-2043.0
 70
    64
  0
VERTEX
  8
I-STAND
  5
933
 10
858.093691
 20
336.354147
 30
-2043.0
 70
    64
  0
VERTEX
  8
I-STAND
  5
934
 10
866.994528
 20
335.351263
 30
-2043.0
 70
    64
  0
VERTEX
  8
I-STAND
  5
935
 10
875.44904
 20
332.392902
 30
-2043.0
 70
    64
  0
VERTEX
  8
I-STAND
  5
936
 10
883.033283
 20
327.627406
 30
-2043.0
 70
    64
  0
VERTEX
  8
I-STAND
  5
937
 10
889.36695
 20
321.293739
 30
-2043.0
 70
    64
  0
VERTEX
  8
I-STAND
  5
938
 10
894.132445
 20
313.709496
 30
-2043.0
 70
    64
  0
VERTEX
  8
I-STAND
  5
939
 10
897.090807
 20
305.254984
 30
-2043.0
 70
    64
  0
VERTEX
  8
I-STAND
  5
93A
 10
898.093691
 20
296.354147
 30
-2043.0
 70
    64
  0
SEQEND
  8
I-STAND
  5
93B
  0
POLYLINE
  8
I-STAND
  5
93C
 66
     1
 10
0.0
 20
0.0
 30
0.0
 70
    16
 71
     2
 72
    15
  0
VERTEX
  8
I-STAND
  5
93D
 10
818.093691
 20
296.354147
 30
-2043.0
 70
    64
  0
VERTEX
  8
I-STAND
  5
93E
 10
819.096574
 20
305.254984
 30
-2043.0
 70
    64
  0
VERTEX
  8
I-STAND
  5
93F
 10
822.054936
 20
313.709496
 30
-2043.0
 70
    64
  0
VERTEX
  8
I-STAND
  5
940
 10
826.820431
 20
321.293739
 30
-2043.0
 70
    64
  0
VERTEX
  8
I-STAND
  5
941
 10
833.154099
 20
327.627406
 30
-2043.0
 70
    64
  0
VERTEX
  8
I-STAND
  5
942
 10
840.738341
 20
332.392902
 30
-2043.0
 70
    64
  0
VERTEX
  8
I-STAND
  5
943
 10
849.192853
 20
335.351263
 30
-2043.0
 70
    64
  0
VERTEX
  8
I-STAND
  5
944
 10
858.093691
 20
336.354147
 30
-2043.0
 70
    64
  0
VERTEX
  8
I-STAND
  5
945
 10
866.994528
 20
335.351263
 30
-2043.0
 70
    64
  0
VERTEX
  8
I-STAND
  5
946
 10
875.44904
 20
332.392902
 30
-2043.0
 70
    64
  0
VERTEX
  8
I-STAND
  5
947
 10
883.033283
 20
327.627406
 30
-2043.0
 70
    64
  0
VERTEX
  8
I-STAND
  5
948
 10
889.36695
 20
321.293739
 30
-2043.0
 70
    64
  0
VERTEX
  8
I-STAND
  5
949
 10
894.132445
 20
313.709496
 30
-2043.0
 70
    64
  0
VERTEX
  8
I-STAND
  5
94A
 10
897.090807
 20
305.254984
 30
-2043.0
 70
    64
  0
VERTEX
  8
I-STAND
  5
94B
 10
898.093691
 20
296.354147
 30
-2043.0
 70
    64
  0
VERTEX
  8
I-STAND
  5
94C
 10
818.093691
 20
296.354147
 30
-2050.0
 70
    64
  0
VERTEX
  8
I-STAND
  5
94D
 10
819.096574
 20
305.254984
 30
-2050.0
 70
    64
  0
VERTEX
  8
I-STAND
  5
94E
 10
822.054936
 20
313.709496
 30
-2050.0
 70
    64
  0
VERTEX
  8
I-STAND
  5
94F
 10
826.820431
 20
321.293739
 30
-2050.0
 70
    64
  0
VERTEX
  8
I-STAND
  5
950
 10
833.154099
 20
327.627406
 30
-2050.0
 70
    64
  0
VERTEX
  8
I-STAND
  5
951
 10
840.738341
 20
332.392902
 30
-2050.0
 70
    64
  0
VERTEX
  8
I-STAND
  5
952
 10
849.192853
 20
335.351263
 30
-2050.0
 70
    64
  0
VERTEX
  8
I-STAND
  5
953
 10
858.093691
 20
336.354147
 30
-2050.0
 70
    64
  0
VERTEX
  8
I-STAND
  5
954
 10
866.994528
 20
335.351263
 30
-2050.0
 70
    64
  0
VERTEX
  8
I-STAND
  5
955
 10
875.44904
 20
332.392902
 30
-2050.0
 70
    64
  0
VERTEX
  8
I-STAND
  5
956
 10
883.033283
 20
327.627406
 30
-2050.0
 70
    64
  0
VERTEX
  8
I-STAND
  5
957
 10
889.36695
 20
321.293739
 30
-2050.0
 70
    64
  0
VERTEX
  8
I-STAND
  5
958
 10
894.132445
 20
313.709496
 30
-2050.0
 70
    64
  0
VERTEX
  8
I-STAND
  5
959
 10
897.090807
 20
305.254984
 30
-2050.0
 70
    64
  0
VERTEX
  8
I-STAND
  5
95A
 10
898.093691
 20
296.354147
 30
-2050.0
 70
    64
  0
SEQEND
  8
I-STAND
  5
95B
  0
POLYLINE
  8
I-STAND
  5
95C
 66
     1
 10
0.0
 20
0.0
 30
0.0
 70
    16
 71
     2
 72
    15
  0
VERTEX
  8
I-STAND
  5
95D
 10
818.093691
 20
296.354147
 30
-2043.0
 70
    64
  0
VERTEX
  8
I-STAND
  5
95E
 10
819.096574
 20
287.45331
 30
-2043.0
 70
    64
  0
VERTEX
  8
I-STAND
  5
95F
 10
822.054936
 20
278.998797
 30
-2043.0
 70
    64
  0
VERTEX
  8
I-STAND
  5
960
 10
826.820431
 20
271.414555
 30
-2043.0
 70
    64
  0
VERTEX
  8
I-STAND
  5
961
 10
833.154099
 20
265.080888
 30
-2043.0
 70
    64
  0
VERTEX
  8
I-STAND
  5
962
 10
840.738341
 20
260.315392
 30
-2043.0
 70
    64
  0
VERTEX
  8
I-STAND
  5
963
 10
849.192853
 20
257.35703
 30
-2043.0
 70
    64
  0
VERTEX
  8
I-STAND
  5
964
 10
858.093691
 20
256.354147
 30
-2043.0
 70
    64
  0
VERTEX
  8
I-STAND
  5
965
 10
866.994528
 20
257.35703
 30
-2043.0
 70
    64
  0
VERTEX
  8
I-STAND
  5
966
 10
875.44904
 20
260.315392
 30
-2043.0
 70
    64
  0
VERTEX
  8
I-STAND
  5
967
 10
883.033283
 20
265.080888
 30
-2043.0
 70
    64
  0
VERTEX
  8
I-STAND
  5
968
 10
889.36695
 20
271.414555
 30
-2043.0
 70
    64
  0
VERTEX
  8
I-STAND
  5
969
 10
894.132445
 20
278.998797
 30
-2043.0
 70
    64
  0
VERTEX
  8
I-STAND
  5
96A
 10
897.090807
 20
287.45331
 30
-2043.0
 70
    64
  0
VERTEX
  8
I-STAND
  5
96B
 10
898.093691
 20
296.354147
 30
-2043.0
 70
    64
  0
VERTEX
  8
I-STAND
  5
96C
 10
818.093691
 20
296.354147
 30
-2050.0
 70
    64
  0
VERTEX
  8
I-STAND
  5
96D
 10
819.096574
 20
287.45331
 30
-2050.0
 70
    64
  0
VERTEX
  8
I-STAND
  5
96E
 10
822.054936
 20
278.998797
 30
-2050.0
 70
    64
  0
VERTEX
  8
I-STAND
  5
96F
 10
826.820431
 20
271.414555
 30
-2050.0
 70
    64
  0
VERTEX
  8
I-STAND
  5
970
 10
833.154099
 20
265.080888
 30
-2050.0
 70
    64
  0
VERTEX
  8
I-STAND
  5
971
 10
840.738341
 20
260.315392
 30
-2050.0
 70
    64
  0
VERTEX
  8
I-STAND
  5
972
 10
849.192853
 20
257.35703
 30
-2050.0
 70
    64
  0
VERTEX
  8
I-STAND
  5
973
 10
858.093691
 20
256.354147
 30
-2050.0
 70
    64
  0
VERTEX
  8
I-STAND
  5
974
 10
866.994528
 20
257.35703
 30
-2050.0
 70
    64
  0
VERTEX
  8
I-STAND
  5
975
 10
875.44904
 20
260.315392
 30
-2050.0
 70
    64
  0
VERTEX
  8
I-STAND
  5
976
 10
883.033283
 20
265.080888
 30
-2050.0
 70
    64
  0
VERTEX
  8
I-STAND
  5
977
 10
889.36695
 20
271.414555
 30
-2050.0
 70
    64
  0
VERTEX
  8
I-STAND
  5
978
 10
894.132445
 20
278.998797
 30
-2050.0
 70
    64
  0
VERTEX
  8
I-STAND
  5
979
 10
897.090807
 20
287.45331
 30
-2050.0
 70
    64
  0
VERTEX
  8
I-STAND
  5
97A
 10
898.093691
 20
296.354147
 30
-2050.0
 70
    64
  0
SEQEND
  8
I-STAND
  5
97B
  0
LINE
  8
I-STAND
  5
97C
 10
873.093691
 20
308.854147
 30
-1893.0
 11
873.093691
 21
308.854147
 31
-2043.0
  0
3DFACE
  8
I-STAND
  5
97D
 10
843.093691
 20
308.854147
 30
-1893.0
 11
843.093691
 21
283.854147
 31
-1893.0
 12
843.093691
 22
283.854147
 32
-2043.0
 13
843.093691
 23
308.854147
 33
-2043.0
  0
3DFACE
  8
I-STAND
  5
97E
 10
843.093691
 20
283.854147
 30
-1893.0
 11
873.093691
 21
283.854147
 31
-1893.0
 12
873.093691
 22
283.854147
 32
-2043.0
 13
843.093691
 23
283.854147
 33
-2043.0
  0
3DFACE
  8
I-STAND
  5
97F
 10
873.093691
 20
308.854147
 30
-1893.0
 11
873.093691
 21
283.854147
 31
-1893.0
 12
873.093691
 22
283.854147
 32
-2043.0
 13
873.093691
 23
308.854147
 33
-2043.0
  0
3DFACE
  8
I-STAND
  5
980
 10
873.093691
 20
308.854147
 30
-1893.0
 11
873.093691
 21
308.854147
 31
-2043.0
 12
843.093691
 22
308.854147
 32
-2043.0
 13
843.093691
 23
308.854147
 33
-1893.0
  0
3DFACE
  8
I-STAND
  5
981
 10
873.093691
 20
683.854147
 30
-1893.0
 11
873.093691
 21
683.854147
 31
-2043.0
 12
843.093691
 22
683.854147
 32
-2043.0
 13
843.093691
 23
683.854147
 33
-1893.0
  0
3DFACE
  8
I-STAND
  5
982
 10
873.093691
 20
683.854147
 30
-1893.0
 11
873.093691
 21
658.854147
 31
-1893.0
 12
873.093691
 22
658.854147
 32
-2043.0
 13
873.093691
 23
683.854147
 33
-2043.0
  0
3DFACE
  8
I-STAND
  5
983
 10
843.093691
 20
658.854147
 30
-1893.0
 11
873.093691
 21
658.854147
 31
-1893.0
 12
873.093691
 22
658.854147
 32
-2043.0
 13
843.093691
 23
658.854147
 33
-2043.0
  0
3DFACE
  8
I-STAND
  5
984
 10
843.093691
 20
683.854147
 30
-1893.0
 11
843.093691
 21
658.854147
 31
-1893.0
 12
843.093691
 22
658.854147
 32
-2043.0
 13
843.093691
 23
683.854147
 33
-2043.0
  0
LINE
  8
I-STAND
  5
985
 10
873.093691
 20
683.854147
 30
-1893.0
 11
873.093691
 21
683.854147
 31
-2043.0
  0
LINE
  8
I-STAND
  5
986
 10
873.093691
 20
658.854147
 30
-1893.0
 11
873.093691
 21
658.854147
 31
-2043.0
  0
LINE
  8
I-STAND
  5
987
 10
843.093691
 20
683.854147
 30
-1893.0
 11
843.093691
 21
683.854147
 31
-2043.0
  0
LINE
  8
I-STAND
  5
988
 10
843.093691
 20
658.854147
 30
-1893.0
 11
843.093691
 21
658.854147
 31
-2043.0
  0
POLYLINE
  8
I-STAND
  5
989
 66
     1
 10
0.0
 20
0.0
 30
0.0
 70
    16
 71
     2
 72
    15
  0
VERTEX
  8
I-STAND
  5
98A
 10
818.093691
 20
671.354147
 30
-2043.0
 70
    64
  0
VERTEX
  8
I-STAND
  5
98B
 10
819.096574
 20
662.45331
 30
-2043.0
 70
    64
  0
VERTEX
  8
I-STAND
  5
98C
 10
822.054936
 20
653.998797
 30
-2043.0
 70
    64
  0
VERTEX
  8
I-STAND
  5
98D
 10
826.820431
 20
646.414555
 30
-2043.0
 70
    64
  0
VERTEX
  8
I-STAND
  5
98E
 10
833.154099
 20
640.080888
 30
-2043.0
 70
    64
  0
VERTEX
  8
I-STAND
  5
98F
 10
840.738341
 20
635.315392
 30
-2043.0
 70
    64
  0
VERTEX
  8
I-STAND
  5
990
 10
849.192853
 20
632.35703
 30
-2043.0
 70
    64
  0
VERTEX
  8
I-STAND
  5
991
 10
858.093691
 20
631.354147
 30
-2043.0
 70
    64
  0
VERTEX
  8
I-STAND
  5
992
 10
866.994528
 20
632.35703
 30
-2043.0
 70
    64
  0
VERTEX
  8
I-STAND
  5
993
 10
875.44904
 20
635.315392
 30
-2043.0
 70
    64
  0
VERTEX
  8
I-STAND
  5
994
 10
883.033283
 20
640.080888
 30
-2043.0
 70
    64
  0
VERTEX
  8
I-STAND
  5
995
 10
889.36695
 20
646.414555
 30
-2043.0
 70
    64
  0
VERTEX
  8
I-STAND
  5
996
 10
894.132445
 20
653.998797
 30
-2043.0
 70
    64
  0
VERTEX
  8
I-STAND
  5
997
 10
897.090807
 20
662.45331
 30
-2043.0
 70
    64
  0
VERTEX
  8
I-STAND
  5
998
 10
898.093691
 20
671.354147
 30
-2043.0
 70
    64
  0
VERTEX
  8
I-STAND
  5
999
 10
818.093691
 20
671.354147
 30
-2050.0
 70
    64
  0
VERTEX
  8
I-STAND
  5
99A
 10
819.096574
 20
662.45331
 30
-2050.0
 70
    64
  0
VERTEX
  8
I-STAND
  5
99B
 10
822.054936
 20
653.998797
 30
-2050.0
 70
    64
  0
VERTEX
  8
I-STAND
  5
99C
 10
826.820431
 20
646.414555
 30
-2050.0
 70
    64
  0
VERTEX
  8
I-STAND
  5
99D
 10
833.154099
 20
640.080888
 30
-2050.0
 70
    64
  0
VERTEX
  8
I-STAND
  5
99E
 10
840.738341
 20
635.315392
 30
-2050.0
 70
    64
  0
VERTEX
  8
I-STAND
  5
99F
 10
849.192853
 20
632.35703
 30
-2050.0
 70
    64
  0
VERTEX
  8
I-STAND
  5
9A0
 10
858.093691
 20
631.354147
 30
-2050.0
 70
    64
  0
VERTEX
  8
I-STAND
  5
9A1
 10
866.994528
 20
632.35703
 30
-2050.0
 70
    64
  0
VERTEX
  8
I-STAND
  5
9A2
 10
875.44904
 20
635.315392
 30
-2050.0
 70
    64
  0
VERTEX
  8
I-STAND
  5
9A3
 10
883.033283
 20
640.080888
 30
-2050.0
 70
    64
  0
VERTEX
  8
I-STAND
  5
9A4
 10
889.36695
 20
646.414555
 30
-2050.0
 70
    64
  0
VERTEX
  8
I-STAND
  5
9A5
 10
894.132445
 20
653.998797
 30
-2050.0
 70
    64
  0
VERTEX
  8
I-STAND
  5
9A6
 10
897.090807
 20
662.45331
 30
-2050.0
 70
    64
  0
VERTEX
  8
I-STAND
  5
9A7
 10
898.093691
 20
671.354147
 30
-2050.0
 70
    64
  0
SEQEND
  8
I-STAND
  5
9A8
  0
POLYLINE
  8
I-STAND
  5
9A9
 66
     1
 10
0.0
 20
0.0
 30
0.0
 70
    16
 71
     2
 72
    15
  0
VERTEX
  8
I-STAND
  5
9AA
 10
818.093691
 20
671.354147
 30
-2043.0
 70
    64
  0
VERTEX
  8
I-STAND
  5
9AB
 10
819.096574
 20
662.45331
 30
-2043.0
 70
    64
  0
VERTEX
  8
I-STAND
  5
9AC
 10
822.054936
 20
653.998797
 30
-2043.0
 70
    64
  0
VERTEX
  8
I-STAND
  5
9AD
 10
826.820431
 20
646.414555
 30
-2043.0
 70
    64
  0
VERTEX
  8
I-STAND
  5
9AE
 10
833.154099
 20
640.080888
 30
-2043.0
 70
    64
  0
VERTEX
  8
I-STAND
  5
9AF
 10
840.738341
 20
635.315392
 30
-2043.0
 70
    64
  0
VERTEX
  8
I-STAND
  5
9B0
 10
849.192853
 20
632.35703
 30
-2043.0
 70
    64
  0
VERTEX
  8
I-STAND
  5
9B1
 10
858.093691
 20
631.354147
 30
-2043.0
 70
    64
  0
VERTEX
  8
I-STAND
  5
9B2
 10
866.994528
 20
632.35703
 30
-2043.0
 70
    64
  0
VERTEX
  8
I-STAND
  5
9B3
 10
875.44904
 20
635.315392
 30
-2043.0
 70
    64
  0
VERTEX
  8
I-STAND
  5
9B4
 10
883.033283
 20
640.080888
 30
-2043.0
 70
    64
  0
VERTEX
  8
I-STAND
  5
9B5
 10
889.36695
 20
646.414555
 30
-2043.0
 70
    64
  0
VERTEX
  8
I-STAND
  5
9B6
 10
894.132445
 20
653.998797
 30
-2043.0
 70
    64
  0
VERTEX
  8
I-STAND
  5
9B7
 10
897.090807
 20
662.45331
 30
-2043.0
 70
    64
  0
VERTEX
  8
I-STAND
  5
9B8
 10
898.093691
 20
671.354147
 30
-2043.0
 70
    64
  0
VERTEX
  8
I-STAND
  5
9B9
 10
818.093691
 20
671.354147
 30
-2043.0
 70
    64
  0
VERTEX
  8
I-STAND
  5
9BA
 10
819.096574
 20
680.254984
 30
-2043.0
 70
    64
  0
VERTEX
  8
I-STAND
  5
9BB
 10
822.054936
 20
688.709496
 30
-2043.0
 70
    64
  0
VERTEX
  8
I-STAND
  5
9BC
 10
826.820431
 20
696.293739
 30
-2043.0
 70
    64
  0
VERTEX
  8
I-STAND
  5
9BD
 10
833.154099
 20
702.627406
 30
-2043.0
 70
    64
  0
VERTEX
  8
I-STAND
  5
9BE
 10
840.738341
 20
707.392902
 30
-2043.0
 70
    64
  0
VERTEX
  8
I-STAND
  5
9BF
 10
849.192853
 20
710.351263
 30
-2043.0
 70
    64
  0
VERTEX
  8
I-STAND
  5
9C0
 10
858.093691
 20
711.354147
 30
-2043.0
 70
    64
  0
VERTEX
  8
I-STAND
  5
9C1
 10
866.994528
 20
710.351263
 30
-2043.0
 70
    64
  0
VERTEX
  8
I-STAND
  5
9C2
 10
875.44904
 20
707.392902
 30
-2043.0
 70
    64
  0
VERTEX
  8
I-STAND
  5
9C3
 10
883.033283
 20
702.627406
 30
-2043.0
 70
    64
  0
VERTEX
  8
I-STAND
  5
9C4
 10
889.36695
 20
696.293739
 30
-2043.0
 70
    64
  0
VERTEX
  8
I-STAND
  5
9C5
 10
894.132445
 20
688.709496
 30
-2043.0
 70
    64
  0
VERTEX
  8
I-STAND
  5
9C6
 10
897.090807
 20
680.254984
 30
-2043.0
 70
    64
  0
VERTEX
  8
I-STAND
  5
9C7
 10
898.093691
 20
671.354147
 30
-2043.0
 70
    64
  0
SEQEND
  8
I-STAND
  5
9C8
  0
ARC
  8
I-STAND
  5
9C9
 10
858.093691
 20
671.354147
 30
-2050.0
 40
40.0
 50
180.0
 51
0.0
  0
ARC
  8
I-STAND
  5
9CA
 10
858.093691
 20
671.354147
 30
-2043.0
 40
40.0
 50
180.0
 51
0.0
  0
POLYLINE
  8
I-STAND
  5
9CB
 66
     1
 10
0.0
 20
0.0
 30
0.0
 70
    16
 71
     2
 72
    15
  0
VERTEX
  8
I-STAND
  5
9CC
 10
818.093691
 20
671.354147
 30
-2043.0
 70
    64
  0
VERTEX
  8
I-STAND
  5
9CD
 10
819.096574
 20
680.254984
 30
-2043.0
 70
    64
  0
VERTEX
  8
I-STAND
  5
9CE
 10
822.054936
 20
688.709496
 30
-2043.0
 70
    64
  0
VERTEX
  8
I-STAND
  5
9CF
 10
826.820431
 20
696.293739
 30
-2043.0
 70
    64
  0
VERTEX
  8
I-STAND
  5
9D0
 10
833.154099
 20
702.627406
 30
-2043.0
 70
    64
  0
VERTEX
  8
I-STAND
  5
9D1
 10
840.738341
 20
707.392902
 30
-2043.0
 70
    64
  0
VERTEX
  8
I-STAND
  5
9D2
 10
849.192853
 20
710.351263
 30
-2043.0
 70
    64
  0
VERTEX
  8
I-STAND
  5
9D3
 10
858.093691
 20
711.354147
 30
-2043.0
 70
    64
  0
VERTEX
  8
I-STAND
  5
9D4
 10
866.994528
 20
710.351263
 30
-2043.0
 70
    64
  0
VERTEX
  8
I-STAND
  5
9D5
 10
875.44904
 20
707.392902
 30
-2043.0
 70
    64
  0
VERTEX
  8
I-STAND
  5
9D6
 10
883.033283
 20
702.627406
 30
-2043.0
 70
    64
  0
VERTEX
  8
I-STAND
  5
9D7
 10
889.36695
 20
696.293739
 30
-2043.0
 70
    64
  0
VERTEX
  8
I-STAND
  5
9D8
 10
894.132445
 20
688.709496
 30
-2043.0
 70
    64
  0
VERTEX
  8
I-STAND
  5
9D9
 10
897.090807
 20
680.254984
 30
-2043.0
 70
    64
  0
VERTEX
  8
I-STAND
  5
9DA
 10
898.093691
 20
671.354147
 30
-2043.0
 70
    64
  0
VERTEX
  8
I-STAND
  5
9DB
 10
818.093691
 20
671.354147
 30
-2050.0
 70
    64
  0
VERTEX
  8
I-STAND
  5
9DC
 10
819.096574
 20
680.254984
 30
-2050.0
 70
    64
  0
VERTEX
  8
I-STAND
  5
9DD
 10
822.054936
 20
688.709496
 30
-2050.0
 70
    64
  0
VERTEX
  8
I-STAND
  5
9DE
 10
826.820431
 20
696.293739
 30
-2050.0
 70
    64
  0
VERTEX
  8
I-STAND
  5
9DF
 10
833.154099
 20
702.627406
 30
-2050.0
 70
    64
  0
VERTEX
  8
I-STAND
  5
9E0
 10
840.738341
 20
707.392902
 30
-2050.0
 70
    64
  0
VERTEX
  8
I-STAND
  5
9E1
 10
849.192853
 20
710.351263
 30
-2050.0
 70
    64
  0
VERTEX
  8
I-STAND
  5
9E2
 10
858.093691
 20
711.354147
 30
-2050.0
 70
    64
  0
VERTEX
  8
I-STAND
  5
9E3
 10
866.994528
 20
710.351263
 30
-2050.0
 70
    64
  0
VERTEX
  8
I-STAND
  5
9E4
 10
875.44904
 20
707.392902
 30
-2050.0
 70
    64
  0
VERTEX
  8
I-STAND
  5
9E5
 10
883.033283
 20
702.627406
 30
-2050.0
 70
    64
  0
VERTEX
  8
I-STAND
  5
9E6
 10
889.36695
 20
696.293739
 30
-2050.0
 70
    64
  0
VERTEX
  8
I-STAND
  5
9E7
 10
894.132445
 20
688.709496
 30
-2050.0
 70
    64
  0
VERTEX
  8
I-STAND
  5
9E8
 10
897.090807
 20
680.254984
 30
-2050.0
 70
    64
  0
VERTEX
  8
I-STAND
  5
9E9
 10
898.093691
 20
671.354147
 30
-2050.0
 70
    64
  0
SEQEND
  8
I-STAND
  5
9EA
  0
ARC
  8
I-STAND
  5
9EB
 10
858.093691
 20
671.354147
 30
-2050.0
 40
40.0
 50
0.0
 51
180.0
  0
ARC
  8
I-STAND
  5
9EC
 10
858.093691
 20
671.354147
 30
-2043.0
 40
40.0
 50
0.0
 51
180.0
  0
LINE
  8
I-STAND
  5
9ED
 10
818.093691
 20
671.354147
 30
-2043.0
 11
898.093691
 21
671.354147
 31
-2043.0
  0
LINE
  8
I-STAND
  5
9EE
 10
873.093691
 20
683.854147
 30
-1893.0
 11
843.093691
 21
683.854147
 31
-1893.0
  0
LINE
  8
I-STAND
  5
9EF
 10
843.093691
 20
658.854147
 30
-1893.0
 11
873.093691
 21
658.854147
 31
-1893.0
  0
LINE
  8
I-STAND
  5
9F0
 10
843.093691
 20
683.854147
 30
-1893.0
 11
843.093691
 21
658.854147
 31
-1893.0
  0
LINE
  8
I-STAND
  5
9F1
 10
873.093691
 20
658.854147
 30
-1893.0
 11
873.093691
 21
683.854147
 31
-1893.0
  0
3DFACE
  8
I-STAND
  5
9F2
 10
1703.093691
 20
308.854147
 30
-1893.0
 11
1703.093691
 21
308.854147
 31
-2043.0
 12
1673.093691
 22
308.854147
 32
-2043.0
 13
1673.093691
 23
308.854147
 33
-1893.0
  0
3DFACE
  8
I-STAND
  5
9F3
 10
1703.093691
 20
308.854147
 30
-1893.0
 11
1703.093691
 21
283.854147
 31
-1893.0
 12
1703.093691
 22
283.854147
 32
-2043.0
 13
1703.093691
 23
308.854147
 33
-2043.0
  0
3DFACE
  8
I-STAND
  5
9F4
 10
1673.093691
 20
283.854147
 30
-1893.0
 11
1703.093691
 21
283.854147
 31
-1893.0
 12
1703.093691
 22
283.854147
 32
-2043.0
 13
1673.093691
 23
283.854147
 33
-2043.0
  0
3DFACE
  8
I-STAND
  5
9F5
 10
1673.093691
 20
308.854147
 30
-1893.0
 11
1673.093691
 21
283.854147
 31
-1893.0
 12
1673.093691
 22
283.854147
 32
-2043.0
 13
1673.093691
 23
308.854147
 33
-2043.0
  0
LINE
  8
I-STAND
  5
9F6
 10
1703.093691
 20
308.854147
 30
-1893.0
 11
1703.093691
 21
308.854147
 31
-2043.0
  0
LINE
  8
I-STAND
  5
9F7
 10
1703.093691
 20
283.854147
 30
-1893.0
 11
1703.093691
 21
283.854147
 31
-2043.0
  0
LINE
  8
I-STAND
  5
9F8
 10
1673.093691
 20
308.854147
 30
-1893.0
 11
1673.093691
 21
308.854147
 31
-2043.0
  0
LINE
  8
I-STAND
  5
9F9
 10
1673.093691
 20
283.854147
 30
-1893.0
 11
1673.093691
 21
283.854147
 31
-2043.0
  0
POLYLINE
  8
I-STAND
  5
9FA
 66
     1
 10
0.0
 20
0.0
 30
0.0
 70
    16
 71
     2
 72
    15
  0
VERTEX
  8
I-STAND
  5
9FB
 10
1648.093691
 20
296.354147
 30
-2043.0
 70
    64
  0
VERTEX
  8
I-STAND
  5
9FC
 10
1649.096574
 20
287.45331
 30
-2043.0
 70
    64
  0
VERTEX
  8
I-STAND
  5
9FD
 10
1652.054936
 20
278.998797
 30
-2043.0
 70
    64
  0
VERTEX
  8
I-STAND
  5
9FE
 10
1656.820431
 20
271.414555
 30
-2043.0
 70
    64
  0
VERTEX
  8
I-STAND
  5
9FF
 10
1663.154099
 20
265.080888
 30
-2043.0
 70
    64
  0
VERTEX
  8
I-STAND
  5
A00
 10
1670.738341
 20
260.315392
 30
-2043.0
 70
    64
  0
VERTEX
  8
I-STAND
  5
A01
 10
1679.192853
 20
257.35703
 30
-2043.0
 70
    64
  0
VERTEX
  8
I-STAND
  5
A02
 10
1688.093691
 20
256.354147
 30
-2043.0
 70
    64
  0
VERTEX
  8
I-STAND
  5
A03
 10
1696.994528
 20
257.35703
 30
-2043.0
 70
    64
  0
VERTEX
  8
I-STAND
  5
A04
 10
1705.44904
 20
260.315392
 30
-2043.0
 70
    64
  0
VERTEX
  8
I-STAND
  5
A05
 10
1713.033283
 20
265.080888
 30
-2043.0
 70
    64
  0
VERTEX
  8
I-STAND
  5
A06
 10
1719.36695
 20
271.414555
 30
-2043.0
 70
    64
  0
VERTEX
  8
I-STAND
  5
A07
 10
1724.132445
 20
278.998797
 30
-2043.0
 70
    64
  0
VERTEX
  8
I-STAND
  5
A08
 10
1727.090807
 20
287.45331
 30
-2043.0
 70
    64
  0
VERTEX
  8
I-STAND
  5
A09
 10
1728.093691
 20
296.354147
 30
-2043.0
 70
    64
  0
VERTEX
  8
I-STAND
  5
A0A
 10
1648.093691
 20
296.354147
 30
-2050.0
 70
    64
  0
VERTEX
  8
I-STAND
  5
A0B
 10
1649.096574
 20
287.45331
 30
-2050.0
 70
    64
  0
VERTEX
  8
I-STAND
  5
A0C
 10
1652.054936
 20
278.998797
 30
-2050.0
 70
    64
  0
VERTEX
  8
I-STAND
  5
A0D
 10
1656.820431
 20
271.414555
 30
-2050.0
 70
    64
  0
VERTEX
  8
I-STAND
  5
A0E
 10
1663.154099
 20
265.080888
 30
-2050.0
 70
    64
  0
VERTEX
  8
I-STAND
  5
A0F
 10
1670.738341
 20
260.315392
 30
-2050.0
 70
    64
  0
VERTEX
  8
I-STAND
  5
A10
 10
1679.192853
 20
257.35703
 30
-2050.0
 70
    64
  0
VERTEX
  8
I-STAND
  5
A11
 10
1688.093691
 20
256.354147
 30
-2050.0
 70
    64
  0
VERTEX
  8
I-STAND
  5
A12
 10
1696.994528
 20
257.35703
 30
-2050.0
 70
    64
  0
VERTEX
  8
I-STAND
  5
A13
 10
1705.44904
 20
260.315392
 30
-2050.0
 70
    64
  0
VERTEX
  8
I-STAND
  5
A14
 10
1713.033283
 20
265.080888
 30
-2050.0
 70
    64
  0
VERTEX
  8
I-STAND
  5
A15
 10
1719.36695
 20
271.414555
 30
-2050.0
 70
    64
  0
VERTEX
  8
I-STAND
  5
A16
 10
1724.132445
 20
278.998797
 30
-2050.0
 70
    64
  0
VERTEX
  8
I-STAND
  5
A17
 10
1727.090807
 20
287.45331
 30
-2050.0
 70
    64
  0
VERTEX
  8
I-STAND
  5
A18
 10
1728.093691
 20
296.354147
 30
-2050.0
 70
    64
  0
SEQEND
  8
I-STAND
  5
A19
  0
POLYLINE
  8
I-STAND
  5
A1A
 66
     1
 10
0.0
 20
0.0
 30
0.0
 70
    16
 71
     2
 72
    15
  0
VERTEX
  8
I-STAND
  5
A1B
 10
1648.093691
 20
296.354147
 30
-2043.0
 70
    64
  0
VERTEX
  8
I-STAND
  5
A1C
 10
1649.096574
 20
287.45331
 30
-2043.0
 70
    64
  0
VERTEX
  8
I-STAND
  5
A1D
 10
1652.054936
 20
278.998797
 30
-2043.0
 70
    64
  0
VERTEX
  8
I-STAND
  5
A1E
 10
1656.820431
 20
271.414555
 30
-2043.0
 70
    64
  0
VERTEX
  8
I-STAND
  5
A1F
 10
1663.154099
 20
265.080888
 30
-2043.0
 70
    64
  0
VERTEX
  8
I-STAND
  5
A20
 10
1670.738341
 20
260.315392
 30
-2043.0
 70
    64
  0
VERTEX
  8
I-STAND
  5
A21
 10
1679.192853
 20
257.35703
 30
-2043.0
 70
    64
  0
VERTEX
  8
I-STAND
  5
A22
 10
1688.093691
 20
256.354147
 30
-2043.0
 70
    64
  0
VERTEX
  8
I-STAND
  5
A23
 10
1696.994528
 20
257.35703
 30
-2043.0
 70
    64
  0
VERTEX
  8
I-STAND
  5
A24
 10
1705.44904
 20
260.315392
 30
-2043.0
 70
    64
  0
VERTEX
  8
I-STAND
  5
A25
 10
1713.033283
 20
265.080888
 30
-2043.0
 70
    64
  0
VERTEX
  8
I-STAND
  5
A26
 10
1719.36695
 20
271.414555
 30
-2043.0
 70
    64
  0
VERTEX
  8
I-STAND
  5
A27
 10
1724.132445
 20
278.998797
 30
-2043.0
 70
    64
  0
VERTEX
  8
I-STAND
  5
A28
 10
1727.090807
 20
287.45331
 30
-2043.0
 70
    64
  0
VERTEX
  8
I-STAND
  5
A29
 10
1728.093691
 20
296.354147
 30
-2043.0
 70
    64
  0
VERTEX
  8
I-STAND
  5
A2A
 10
1648.093691
 20
296.354147
 30
-2043.0
 70
    64
  0
VERTEX
  8
I-STAND
  5
A2B
 10
1649.096574
 20
305.254984
 30
-2043.0
 70
    64
  0
VERTEX
  8
I-STAND
  5
A2C
 10
1652.054936
 20
313.709496
 30
-2043.0
 70
    64
  0
VERTEX
  8
I-STAND
  5
A2D
 10
1656.820431
 20
321.293739
 30
-2043.0
 70
    64
  0
VERTEX
  8
I-STAND
  5
A2E
 10
1663.154099
 20
327.627406
 30
-2043.0
 70
    64
  0
VERTEX
  8
I-STAND
  5
A2F
 10
1670.738341
 20
332.392902
 30
-2043.0
 70
    64
  0
VERTEX
  8
I-STAND
  5
A30
 10
1679.192853
 20
335.351263
 30
-2043.0
 70
    64
  0
VERTEX
  8
I-STAND
  5
A31
 10
1688.093691
 20
336.354147
 30
-2043.0
 70
    64
  0
VERTEX
  8
I-STAND
  5
A32
 10
1696.994528
 20
335.351263
 30
-2043.0
 70
    64
  0
VERTEX
  8
I-STAND
  5
A33
 10
1705.44904
 20
332.392902
 30
-2043.0
 70
    64
  0
VERTEX
  8
I-STAND
  5
A34
 10
1713.033283
 20
327.627406
 30
-2043.0
 70
    64
  0
VERTEX
  8
I-STAND
  5
A35
 10
1719.36695
 20
321.293739
 30
-2043.0
 70
    64
  0
VERTEX
  8
I-STAND
  5
A36
 10
1724.132445
 20
313.709496
 30
-2043.0
 70
    64
  0
VERTEX
  8
I-STAND
  5
A37
 10
1727.090807
 20
305.254984
 30
-2043.0
 70
    64
  0
VERTEX
  8
I-STAND
  5
A38
 10
1728.093691
 20
296.354147
 30
-2043.0
 70
    64
  0
SEQEND
  8
I-STAND
  5
A39
  0
ARC
  8
I-STAND
  5
A3A
 10
1688.093691
 20
296.354147
 30
-2050.0
 40
40.0
 50
180.0
 51
0.0
  0
ARC
  8
I-STAND
  5
A3B
 10
1688.093691
 20
296.354147
 30
-2043.0
 40
40.0
 50
180.0
 51
0.0
  0
POLYLINE
  8
I-STAND
  5
A3C
 66
     1
 10
0.0
 20
0.0
 30
0.0
 70
    16
 71
     2
 72
    15
  0
VERTEX
  8
I-STAND
  5
A3D
 10
1648.093691
 20
296.354147
 30
-2043.0
 70
    64
  0
VERTEX
  8
I-STAND
  5
A3E
 10
1649.096574
 20
305.254984
 30
-2043.0
 70
    64
  0
VERTEX
  8
I-STAND
  5
A3F
 10
1652.054936
 20
313.709496
 30
-2043.0
 70
    64
  0
VERTEX
  8
I-STAND
  5
A40
 10
1656.820431
 20
321.293739
 30
-2043.0
 70
    64
  0
VERTEX
  8
I-STAND
  5
A41
 10
1663.154099
 20
327.627406
 30
-2043.0
 70
    64
  0
VERTEX
  8
I-STAND
  5
A42
 10
1670.738341
 20
332.392902
 30
-2043.0
 70
    64
  0
VERTEX
  8
I-STAND
  5
A43
 10
1679.192853
 20
335.351263
 30
-2043.0
 70
    64
  0
VERTEX
  8
I-STAND
  5
A44
 10
1688.093691
 20
336.354147
 30
-2043.0
 70
    64
  0
VERTEX
  8
I-STAND
  5
A45
 10
1696.994528
 20
335.351263
 30
-2043.0
 70
    64
  0
VERTEX
  8
I-STAND
  5
A46
 10
1705.44904
 20
332.392902
 30
-2043.0
 70
    64
  0
VERTEX
  8
I-STAND
  5
A47
 10
1713.033283
 20
327.627406
 30
-2043.0
 70
    64
  0
VERTEX
  8
I-STAND
  5
A48
 10
1719.36695
 20
321.293739
 30
-2043.0
 70
    64
  0
VERTEX
  8
I-STAND
  5
A49
 10
1724.132445
 20
313.709496
 30
-2043.0
 70
    64
  0
VERTEX
  8
I-STAND
  5
A4A
 10
1727.090807
 20
305.254984
 30
-2043.0
 70
    64
  0
VERTEX
  8
I-STAND
  5
A4B
 10
1728.093691
 20
296.354147
 30
-2043.0
 70
    64
  0
VERTEX
  8
I-STAND
  5
A4C
 10
1648.093691
 20
296.354147
 30
-2050.0
 70
    64
  0
VERTEX
  8
I-STAND
  5
A4D
 10
1649.096574
 20
305.254984
 30
-2050.0
 70
    64
  0
VERTEX
  8
I-STAND
  5
A4E
 10
1652.054936
 20
313.709496
 30
-2050.0
 70
    64
  0
VERTEX
  8
I-STAND
  5
A4F
 10
1656.820431
 20
321.293739
 30
-2050.0
 70
    64
  0
VERTEX
  8
I-STAND
  5
A50
 10
1663.154099
 20
327.627406
 30
-2050.0
 70
    64
  0
VERTEX
  8
I-STAND
  5
A51
 10
1670.738341
 20
332.392902
 30
-2050.0
 70
    64
  0
VERTEX
  8
I-STAND
  5
A52
 10
1679.192853
 20
335.351263
 30
-2050.0
 70
    64
  0
VERTEX
  8
I-STAND
  5
A53
 10
1688.093691
 20
336.354147
 30
-2050.0
 70
    64
  0
VERTEX
  8
I-STAND
  5
A54
 10
1696.994528
 20
335.351263
 30
-2050.0
 70
    64
  0
VERTEX
  8
I-STAND
  5
A55
 10
1705.44904
 20
332.392902
 30
-2050.0
 70
    64
  0
VERTEX
  8
I-STAND
  5
A56
 10
1713.033283
 20
327.627406
 30
-2050.0
 70
    64
  0
VERTEX
  8
I-STAND
  5
A57
 10
1719.36695
 20
321.293739
 30
-2050.0
 70
    64
  0
VERTEX
  8
I-STAND
  5
A58
 10
1724.132445
 20
313.709496
 30
-2050.0
 70
    64
  0
VERTEX
  8
I-STAND
  5
A59
 10
1727.090807
 20
305.254984
 30
-2050.0
 70
    64
  0
VERTEX
  8
I-STAND
  5
A5A
 10
1728.093691
 20
296.354147
 30
-2050.0
 70
    64
  0
SEQEND
  8
I-STAND
  5
A5B
  0
ARC
  8
I-STAND
  5
A5C
 10
1688.093691
 20
296.354147
 30
-2050.0
 40
40.0
 50
0.0
 51
180.0
  0
ARC
  8
I-STAND
  5
A5D
 10
1688.093691
 20
296.354147
 30
-2043.0
 40
40.0
 50
0.0
 51
180.0
  0
LINE
  8
I-STAND
  5
A5E
 10
1648.093691
 20
296.354147
 30
-2043.0
 11
1728.093691
 21
296.354147
 31
-2043.0
  0
LINE
  8
I-STAND
  5
A5F
 10
1703.093691
 20
308.854147
 30
-1893.0
 11
1673.093691
 21
308.854147
 31
-1893.0
  0
LINE
  8
I-STAND
  5
A60
 10
1673.093691
 20
283.854147
 30
-1893.0
 11
1703.093691
 21
283.854147
 31
-1893.0
  0
LINE
  8
I-STAND
  5
A61
 10
1673.093691
 20
308.854147
 30
-1893.0
 11
1673.093691
 21
283.854147
 31
-1893.0
  0
LINE
  8
I-STAND
  5
A62
 10
1703.093691
 20
283.854147
 30
-1893.0
 11
1703.093691
 21
308.854147
 31
-1893.0
  0
3DFACE
  8
I-STAND
  5
A63
 10
1703.093691
 20
683.854147
 30
-1893.0
 11
1703.093691
 21
683.854147
 31
-2043.0
 12
1673.093691
 22
683.854147
 32
-2043.0
 13
1673.093691
 23
683.854147
 33
-1893.0
  0
3DFACE
  8
I-STAND
  5
A64
 10
1703.093691
 20
683.854147
 30
-1893.0
 11
1703.093691
 21
658.854147
 31
-1893.0
 12
1703.093691
 22
658.854147
 32
-2043.0
 13
1703.093691
 23
683.854147
 33
-2043.0
  0
3DFACE
  8
I-STAND
  5
A65
 10
1673.093691
 20
658.854147
 30
-1893.0
 11
1703.093691
 21
658.854147
 31
-1893.0
 12
1703.093691
 22
658.854147
 32
-2043.0
 13
1673.093691
 23
658.854147
 33
-2043.0
  0
3DFACE
  8
I-STAND
  5
A66
 10
1673.093691
 20
683.854147
 30
-1893.0
 11
1673.093691
 21
658.854147
 31
-1893.0
 12
1673.093691
 22
658.854147
 32
-2043.0
 13
1673.093691
 23
683.854147
 33
-2043.0
  0
LINE
  8
I-STAND
  5
A67
 10
1703.093691
 20
683.854147
 30
-1893.0
 11
1703.093691
 21
683.854147
 31
-2043.0
  0
LINE
  8
I-STAND
  5
A68
 10
1703.093691
 20
658.854147
 30
-1893.0
 11
1703.093691
 21
658.854147
 31
-2043.0
  0
LINE
  8
I-STAND
  5
A69
 10
1673.093691
 20
683.854147
 30
-1893.0
 11
1673.093691
 21
683.854147
 31
-2043.0
  0
LINE
  8
I-STAND
  5
A6A
 10
1673.093691
 20
658.854147
 30
-1893.0
 11
1673.093691
 21
658.854147
 31
-2043.0
  0
POLYLINE
  8
I-STAND
  5
A6B
 66
     1
 10
0.0
 20
0.0
 30
0.0
 70
    16
 71
     2
 72
    15
  0
VERTEX
  8
I-STAND
  5
A6C
 10
1648.093691
 20
671.354147
 30
-2043.0
 70
    64
  0
VERTEX
  8
I-STAND
  5
A6D
 10
1649.096574
 20
662.45331
 30
-2043.0
 70
    64
  0
VERTEX
  8
I-STAND
  5
A6E
 10
1652.054936
 20
653.998797
 30
-2043.0
 70
    64
  0
VERTEX
  8
I-STAND
  5
A6F
 10
1656.820431
 20
646.414555
 30
-2043.0
 70
    64
  0
VERTEX
  8
I-STAND
  5
A70
 10
1663.154099
 20
640.080888
 30
-2043.0
 70
    64
  0
VERTEX
  8
I-STAND
  5
A71
 10
1670.738341
 20
635.315392
 30
-2043.0
 70
    64
  0
VERTEX
  8
I-STAND
  5
A72
 10
1679.192853
 20
632.35703
 30
-2043.0
 70
    64
  0
VERTEX
  8
I-STAND
  5
A73
 10
1688.093691
 20
631.354147
 30
-2043.0
 70
    64
  0
VERTEX
  8
I-STAND
  5
A74
 10
1696.994528
 20
632.35703
 30
-2043.0
 70
    64
  0
VERTEX
  8
I-STAND
  5
A75
 10
1705.44904
 20
635.315392
 30
-2043.0
 70
    64
  0
VERTEX
  8
I-STAND
  5
A76
 10
1713.033283
 20
640.080888
 30
-2043.0
 70
    64
  0
VERTEX
  8
I-STAND
  5
A77
 10
1719.36695
 20
646.414555
 30
-2043.0
 70
    64
  0
VERTEX
  8
I-STAND
  5
A78
 10
1724.132445
 20
653.998797
 30
-2043.0
 70
    64
  0
VERTEX
  8
I-STAND
  5
A79
 10
1727.090807
 20
662.45331
 30
-2043.0
 70
    64
  0
VERTEX
  8
I-STAND
  5
A7A
 10
1728.093691
 20
671.354147
 30
-2043.0
 70
    64
  0
VERTEX
  8
I-STAND
  5
A7B
 10
1648.093691
 20
671.354147
 30
-2050.0
 70
    64
  0
VERTEX
  8
I-STAND
  5
A7C
 10
1649.096574
 20
662.45331
 30
-2050.0
 70
    64
  0
VERTEX
  8
I-STAND
  5
A7D
 10
1652.054936
 20
653.998797
 30
-2050.0
 70
    64
  0
VERTEX
  8
I-STAND
  5
A7E
 10
1656.820431
 20
646.414555
 30
-2050.0
 70
    64
  0
VERTEX
  8
I-STAND
  5
A7F
 10
1663.154099
 20
640.080888
 30
-2050.0
 70
    64
  0
VERTEX
  8
I-STAND
  5
A80
 10
1670.738341
 20
635.315392
 30
-2050.0
 70
    64
  0
VERTEX
  8
I-STAND
  5
A81
 10
1679.192853
 20
632.35703
 30
-2050.0
 70
    64
  0
VERTEX
  8
I-STAND
  5
A82
 10
1688.093691
 20
631.354147
 30
-2050.0
 70
    64
  0
VERTEX
  8
I-STAND
  5
A83
 10
1696.994528
 20
632.35703
 30
-2050.0
 70
    64
  0
VERTEX
  8
I-STAND
  5
A84
 10
1705.44904
 20
635.315392
 30
-2050.0
 70
    64
  0
VERTEX
  8
I-STAND
  5
A85
 10
1713.033283
 20
640.080888
 30
-2050.0
 70
    64
  0
VERTEX
  8
I-STAND
  5
A86
 10
1719.36695
 20
646.414555
 30
-2050.0
 70
    64
  0
VERTEX
  8
I-STAND
  5
A87
 10
1724.132445
 20
653.998797
 30
-2050.0
 70
    64
  0
VERTEX
  8
I-STAND
  5
A88
 10
1727.090807
 20
662.45331
 30
-2050.0
 70
    64
  0
VERTEX
  8
I-STAND
  5
A89
 10
1728.093691
 20
671.354147
 30
-2050.0
 70
    64
  0
SEQEND
  8
I-STAND
  5
A8A
  0
POLYLINE
  8
I-STAND
  5
A8B
 66
     1
 10
0.0
 20
0.0
 30
0.0
 70
    16
 71
     2
 72
    15
  0
VERTEX
  8
I-STAND
  5
A8C
 10
1648.093691
 20
671.354147
 30
-2043.0
 70
    64
  0
VERTEX
  8
I-STAND
  5
A8D
 10
1649.096574
 20
662.45331
 30
-2043.0
 70
    64
  0
VERTEX
  8
I-STAND
  5
A8E
 10
1652.054936
 20
653.998797
 30
-2043.0
 70
    64
  0
VERTEX
  8
I-STAND
  5
A8F
 10
1656.820431
 20
646.414555
 30
-2043.0
 70
    64
  0
VERTEX
  8
I-STAND
  5
A90
 10
1663.154099
 20
640.080888
 30
-2043.0
 70
    64
  0
VERTEX
  8
I-STAND
  5
A91
 10
1670.738341
 20
635.315392
 30
-2043.0
 70
    64
  0
VERTEX
  8
I-STAND
  5
A92
 10
1679.192853
 20
632.35703
 30
-2043.0
 70
    64
  0
VERTEX
  8
I-STAND
  5
A93
 10
1688.093691
 20
631.354147
 30
-2043.0
 70
    64
  0
VERTEX
  8
I-STAND
  5
A94
 10
1696.994528
 20
632.35703
 30
-2043.0
 70
    64
  0
VERTEX
  8
I-STAND
  5
A95
 10
1705.44904
 20
635.315392
 30
-2043.0
 70
    64
  0
VERTEX
  8
I-STAND
  5
A96
 10
1713.033283
 20
640.080888
 30
-2043.0
 70
    64
  0
VERTEX
  8
I-STAND
  5
A97
 10
1719.36695
 20
646.414555
 30
-2043.0
 70
    64
  0
VERTEX
  8
I-STAND
  5
A98
 10
1724.132445
 20
653.998797
 30
-2043.0
 70
    64
  0
VERTEX
  8
I-STAND
  5
A99
 10
1727.090807
 20
662.45331
 30
-2043.0
 70
    64
  0
VERTEX
  8
I-STAND
  5
A9A
 10
1728.093691
 20
671.354147
 30
-2043.0
 70
    64
  0
VERTEX
  8
I-STAND
  5
A9B
 10
1648.093691
 20
671.354147
 30
-2043.0
 70
    64
  0
VERTEX
  8
I-STAND
  5
A9C
 10
1649.096574
 20
680.254984
 30
-2043.0
 70
    64
  0
VERTEX
  8
I-STAND
  5
A9D
 10
1652.054936
 20
688.709496
 30
-2043.0
 70
    64
  0
VERTEX
  8
I-STAND
  5
A9E
 10
1656.820431
 20
696.293739
 30
-2043.0
 70
    64
  0
VERTEX
  8
I-STAND
  5
A9F
 10
1663.154099
 20
702.627406
 30
-2043.0
 70
    64
  0
VERTEX
  8
I-STAND
  5
AA0
 10
1670.738341
 20
707.392902
 30
-2043.0
 70
    64
  0
VERTEX
  8
I-STAND
  5
AA1
 10
1679.192853
 20
710.351263
 30
-2043.0
 70
    64
  0
VERTEX
  8
I-STAND
  5
AA2
 10
1688.093691
 20
711.354147
 30
-2043.0
 70
    64
  0
VERTEX
  8
I-STAND
  5
AA3
 10
1696.994528
 20
710.351263
 30
-2043.0
 70
    64
  0
VERTEX
  8
I-STAND
  5
AA4
 10
1705.44904
 20
707.392902
 30
-2043.0
 70
    64
  0
VERTEX
  8
I-STAND
  5
AA5
 10
1713.033283
 20
702.627406
 30
-2043.0
 70
    64
  0
VERTEX
  8
I-STAND
  5
AA6
 10
1719.36695
 20
696.293739
 30
-2043.0
 70
    64
  0
VERTEX
  8
I-STAND
  5
AA7
 10
1724.132445
 20
688.709496
 30
-2043.0
 70
    64
  0
VERTEX
  8
I-STAND
  5
AA8
 10
1727.090807
 20
680.254984
 30
-2043.0
 70
    64
  0
VERTEX
  8
I-STAND
  5
AA9
 10
1728.093691
 20
671.354147
 30
-2043.0
 70
    64
  0
SEQEND
  8
I-STAND
  5
AAA
  0
ARC
  8
I-STAND
  5
AAB
 10
1688.093691
 20
671.354147
 30
-2050.0
 40
40.0
 50
180.0
 51
0.0
  0
ARC
  8
I-STAND
  5
AAC
 10
1688.093691
 20
671.354147
 30
-2043.0
 40
40.0
 50
180.0
 51
0.0
  0
POLYLINE
  8
I-STAND
  5
AAD
 66
     1
 10
0.0
 20
0.0
 30
0.0
 70
    16
 71
     2
 72
    15
  0
VERTEX
  8
I-STAND
  5
AAE
 10
1648.093691
 20
671.354147
 30
-2043.0
 70
    64
  0
VERTEX
  8
I-STAND
  5
AAF
 10
1649.096574
 20
680.254984
 30
-2043.0
 70
    64
  0
VERTEX
  8
I-STAND
  5
AB0
 10
1652.054936
 20
688.709496
 30
-2043.0
 70
    64
  0
VERTEX
  8
I-STAND
  5
AB1
 10
1656.820431
 20
696.293739
 30
-2043.0
 70
    64
  0
VERTEX
  8
I-STAND
  5
AB2
 10
1663.154099
 20
702.627406
 30
-2043.0
 70
    64
  0
VERTEX
  8
I-STAND
  5
AB3
 10
1670.738341
 20
707.392902
 30
-2043.0
 70
    64
  0
VERTEX
  8
I-STAND
  5
AB4
 10
1679.192853
 20
710.351263
 30
-2043.0
 70
    64
  0
VERTEX
  8
I-STAND
  5
AB5
 10
1688.093691
 20
711.354147
 30
-2043.0
 70
    64
  0
VERTEX
  8
I-STAND
  5
AB6
 10
1696.994528
 20
710.351263
 30
-2043.0
 70
    64
  0
VERTEX
  8
I-STAND
  5
AB7
 10
1705.44904
 20
707.392902
 30
-2043.0
 70
    64
  0
VERTEX
  8
I-STAND
  5
AB8
 10
1713.033283
 20
702.627406
 30
-2043.0
 70
    64
  0
VERTEX
  8
I-STAND
  5
AB9
 10
1719.36695
 20
696.293739
 30
-2043.0
 70
    64
  0
VERTEX
  8
I-STAND
  5
ABA
 10
1724.132445
 20
688.709496
 30
-2043.0
 70
    64
  0
VERTEX
  8
I-STAND
  5
ABB
 10
1727.090807
 20
680.254984
 30
-2043.0
 70
    64
  0
VERTEX
  8
I-STAND
  5
ABC
 10
1728.093691
 20
671.354147
 30
-2043.0
 70
    64
  0
VERTEX
  8
I-STAND
  5
ABD
 10
1648.093691
 20
671.354147
 30
-2050.0
 70
    64
  0
VERTEX
  8
I-STAND
  5
ABE
 10
1649.096574
 20
680.254984
 30
-2050.0
 70
    64
  0
VERTEX
  8
I-STAND
  5
ABF
 10
1652.054936
 20
688.709496
 30
-2050.0
 70
    64
  0
VERTEX
  8
I-STAND
  5
AC0
 10
1656.820431
 20
696.293739
 30
-2050.0
 70
    64
  0
VERTEX
  8
I-STAND
  5
AC1
 10
1663.154099
 20
702.627406
 30
-2050.0
 70
    64
  0
VERTEX
  8
I-STAND
  5
AC2
 10
1670.738341
 20
707.392902
 30
-2050.0
 70
    64
  0
VERTEX
  8
I-STAND
  5
AC3
 10
1679.192853
 20
710.351263
 30
-2050.0
 70
    64
  0
VERTEX
  8
I-STAND
  5
AC4
 10
1688.093691
 20
711.354147
 30
-2050.0
 70
    64
  0
VERTEX
  8
I-STAND
  5
AC5
 10
1696.994528
 20
710.351263
 30
-2050.0
 70
    64
  0
VERTEX
  8
I-STAND
  5
AC6
 10
1705.44904
 20
707.392902
 30
-2050.0
 70
    64
  0
VERTEX
  8
I-STAND
  5
AC7
 10
1713.033283
 20
702.627406
 30
-2050.0
 70
    64
  0
VERTEX
  8
I-STAND
  5
AC8
 10
1719.36695
 20
696.293739
 30
-2050.0
 70
    64
  0
VERTEX
  8
I-STAND
  5
AC9
 10
1724.132445
 20
688.709496
 30
-2050.0
 70
    64
  0
VERTEX
  8
I-STAND
  5
ACA
 10
1727.090807
 20
680.254984
 30
-2050.0
 70
    64
  0
VERTEX
  8
I-STAND
  5
ACB
 10
1728.093691
 20
671.354147
 30
-2050.0
 70
    64
  0
SEQEND
  8
I-STAND
  5
ACC
  0
ARC
  8
I-STAND
  5
ACD
 10
1688.093691
 20
671.354147
 30
-2050.0
 40
40.0
 50
0.0
 51
180.0
  0
ARC
  8
I-STAND
  5
ACE
 10
1688.093691
 20
671.354147
 30
-2043.0
 40
40.0
 50
0.0
 51
180.0
  0
LINE
  8
I-STAND
  5
ACF
 10
1648.093691
 20
671.354147
 30
-2043.0
 11
1728.093691
 21
671.354147
 31
-2043.0
  0
LINE
  8
I-STAND
  5
AD0
 10
1703.093691
 20
683.854147
 30
-1893.0
 11
1673.093691
 21
683.854147
 31
-1893.0
  0
LINE
  8
I-STAND
  5
AD1
 10
1673.093691
 20
658.854147
 30
-1893.0
 11
1703.093691
 21
658.854147
 31
-1893.0
  0
LINE
  8
I-STAND
  5
AD2
 10
1673.093691
 20
683.854147
 30
-1893.0
 11
1673.093691
 21
658.854147
 31
-1893.0
  0
LINE
  8
I-STAND
  5
AD3
 10
1703.093691
 20
658.854147
 30
-1893.0
 11
1703.093691
 21
683.854147
 31
-1893.0
  0
3DFACE
  8
I-STAND
  5
AD4
 10
2123.093691
 20
308.854147
 30
-1893.0
 11
2123.093691
 21
308.854147
 31
-2043.0
 12
2093.093691
 22
308.854147
 32
-2043.0
 13
2093.093691
 23
308.854147
 33
-1893.0
  0
3DFACE
  8
I-STAND
  5
AD5
 10
2123.093691
 20
308.854147
 30
-1893.0
 11
2123.093691
 21
283.854147
 31
-1893.0
 12
2123.093691
 22
283.854147
 32
-2043.0
 13
2123.093691
 23
308.854147
 33
-2043.0
  0
3DFACE
  8
I-STAND
  5
AD6
 10
2093.093691
 20
283.854147
 30
-1893.0
 11
2123.093691
 21
283.854147
 31
-1893.0
 12
2123.093691
 22
283.854147
 32
-2043.0
 13
2093.093691
 23
283.854147
 33
-2043.0
  0
3DFACE
  8
I-STAND
  5
AD7
 10
2093.093691
 20
308.854147
 30
-1893.0
 11
2093.093691
 21
283.854147
 31
-1893.0
 12
2093.093691
 22
283.854147
 32
-2043.0
 13
2093.093691
 23
308.854147
 33
-2043.0
  0
LINE
  8
I-STAND
  5
AD8
 10
2123.093691
 20
308.854147
 30
-1893.0
 11
2123.093691
 21
308.854147
 31
-2043.0
  0
LINE
  8
I-STAND
  5
AD9
 10
2123.093691
 20
283.854147
 30
-1893.0
 11
2123.093691
 21
283.854147
 31
-2043.0
  0
LINE
  8
I-STAND
  5
ADA
 10
2093.093691
 20
308.854147
 30
-1893.0
 11
2093.093691
 21
308.854147
 31
-2043.0
  0
LINE
  8
I-STAND
  5
ADB
 10
2093.093691
 20
283.854147
 30
-1893.0
 11
2093.093691
 21
283.854147
 31
-2043.0
  0
POLYLINE
  8
I-STAND
  5
ADC
 66
     1
 10
0.0
 20
0.0
 30
0.0
 70
    16
 71
     2
 72
    15
  0
VERTEX
  8
I-STAND
  5
ADD
 10
2068.093691
 20
296.354147
 30
-2043.0
 70
    64
  0
VERTEX
  8
I-STAND
  5
ADE
 10
2069.096574
 20
287.45331
 30
-2043.0
 70
    64
  0
VERTEX
  8
I-STAND
  5
ADF
 10
2072.054936
 20
278.998797
 30
-2043.0
 70
    64
  0
VERTEX
  8
I-STAND
  5
AE0
 10
2076.820431
 20
271.414555
 30
-2043.0
 70
    64
  0
VERTEX
  8
I-STAND
  5
AE1
 10
2083.154099
 20
265.080888
 30
-2043.0
 70
    64
  0
VERTEX
  8
I-STAND
  5
AE2
 10
2090.738341
 20
260.315392
 30
-2043.0
 70
    64
  0
VERTEX
  8
I-STAND
  5
AE3
 10
2099.192853
 20
257.35703
 30
-2043.0
 70
    64
  0
VERTEX
  8
I-STAND
  5
AE4
 10
2108.093691
 20
256.354147
 30
-2043.0
 70
    64
  0
VERTEX
  8
I-STAND
  5
AE5
 10
2116.994528
 20
257.35703
 30
-2043.0
 70
    64
  0
VERTEX
  8
I-STAND
  5
AE6
 10
2125.44904
 20
260.315392
 30
-2043.0
 70
    64
  0
VERTEX
  8
I-STAND
  5
AE7
 10
2133.033283
 20
265.080888
 30
-2043.0
 70
    64
  0
VERTEX
  8
I-STAND
  5
AE8
 10
2139.36695
 20
271.414555
 30
-2043.0
 70
    64
  0
VERTEX
  8
I-STAND
  5
AE9
 10
2144.132445
 20
278.998797
 30
-2043.0
 70
    64
  0
VERTEX
  8
I-STAND
  5
AEA
 10
2147.090807
 20
287.45331
 30
-2043.0
 70
    64
  0
VERTEX
  8
I-STAND
  5
AEB
 10
2148.093691
 20
296.354147
 30
-2043.0
 70
    64
  0
VERTEX
  8
I-STAND
  5
AEC
 10
2068.093691
 20
296.354147
 30
-2050.0
 70
    64
  0
VERTEX
  8
I-STAND
  5
AED
 10
2069.096574
 20
287.45331
 30
-2050.0
 70
    64
  0
VERTEX
  8
I-STAND
  5
AEE
 10
2072.054936
 20
278.998797
 30
-2050.0
 70
    64
  0
VERTEX
  8
I-STAND
  5
AEF
 10
2076.820431
 20
271.414555
 30
-2050.0
 70
    64
  0
VERTEX
  8
I-STAND
  5
AF0
 10
2083.154099
 20
265.080888
 30
-2050.0
 70
    64
  0
VERTEX
  8
I-STAND
  5
AF1
 10
2090.738341
 20
260.315392
 30
-2050.0
 70
    64
  0
VERTEX
  8
I-STAND
  5
AF2
 10
2099.192853
 20
257.35703
 30
-2050.0
 70
    64
  0
VERTEX
  8
I-STAND
  5
AF3
 10
2108.093691
 20
256.354147
 30
-2050.0
 70
    64
  0
VERTEX
  8
I-STAND
  5
AF4
 10
2116.994528
 20
257.35703
 30
-2050.0
 70
    64
  0
VERTEX
  8
I-STAND
  5
AF5
 10
2125.44904
 20
260.315392
 30
-2050.0
 70
    64
  0
VERTEX
  8
I-STAND
  5
AF6
 10
2133.033283
 20
265.080888
 30
-2050.0
 70
    64
  0
VERTEX
  8
I-STAND
  5
AF7
 10
2139.36695
 20
271.414555
 30
-2050.0
 70
    64
  0
VERTEX
  8
I-STAND
  5
AF8
 10
2144.132445
 20
278.998797
 30
-2050.0
 70
    64
  0
VERTEX
  8
I-STAND
  5
AF9
 10
2147.090807
 20
287.45331
 30
-2050.0
 70
    64
  0
VERTEX
  8
I-STAND
  5
AFA
 10
2148.093691
 20
296.354147
 30
-2050.0
 70
    64
  0
SEQEND
  8
I-STAND
  5
AFB
  0
POLYLINE
  8
I-STAND
  5
AFC
 66
     1
 10
0.0
 20
0.0
 30
0.0
 70
    16
 71
     2
 72
    15
  0
VERTEX
  8
I-STAND
  5
AFD
 10
2068.093691
 20
296.354147
 30
-2043.0
 70
    64
  0
VERTEX
  8
I-STAND
  5
AFE
 10
2069.096574
 20
287.45331
 30
-2043.0
 70
    64
  0
VERTEX
  8
I-STAND
  5
AFF
 10
2072.054936
 20
278.998797
 30
-2043.0
 70
    64
  0
VERTEX
  8
I-STAND
  5
B00
 10
2076.820431
 20
271.414555
 30
-2043.0
 70
    64
  0
VERTEX
  8
I-STAND
  5
B01
 10
2083.154099
 20
265.080888
 30
-2043.0
 70
    64
  0
VERTEX
  8
I-STAND
  5
B02
 10
2090.738341
 20
260.315392
 30
-2043.0
 70
    64
  0
VERTEX
  8
I-STAND
  5
B03
 10
2099.192853
 20
257.35703
 30
-2043.0
 70
    64
  0
VERTEX
  8
I-STAND
  5
B04
 10
2108.093691
 20
256.354147
 30
-2043.0
 70
    64
  0
VERTEX
  8
I-STAND
  5
B05
 10
2116.994528
 20
257.35703
 30
-2043.0
 70
    64
  0
VERTEX
  8
I-STAND
  5
B06
 10
2125.44904
 20
260.315392
 30
-2043.0
 70
    64
  0
VERTEX
  8
I-STAND
  5
B07
 10
2133.033283
 20
265.080888
 30
-2043.0
 70
    64
  0
VERTEX
  8
I-STAND
  5
B08
 10
2139.36695
 20
271.414555
 30
-2043.0
 70
    64
  0
VERTEX
  8
I-STAND
  5
B09
 10
2144.132445
 20
278.998797
 30
-2043.0
 70
    64
  0
VERTEX
  8
I-STAND
  5
B0A
 10
2147.090807
 20
287.45331
 30
-2043.0
 70
    64
  0
VERTEX
  8
I-STAND
  5
B0B
 10
2148.093691
 20
296.354147
 30
-2043.0
 70
    64
  0
VERTEX
  8
I-STAND
  5
B0C
 10
2068.093691
 20
296.354147
 30
-2043.0
 70
    64
  0
VERTEX
  8
I-STAND
  5
B0D
 10
2069.096574
 20
305.254984
 30
-2043.0
 70
    64
  0
VERTEX
  8
I-STAND
  5
B0E
 10
2072.054936
 20
313.709496
 30
-2043.0
 70
    64
  0
VERTEX
  8
I-STAND
  5
B0F
 10
2076.820431
 20
321.293739
 30
-2043.0
 70
    64
  0
VERTEX
  8
I-STAND
  5
B10
 10
2083.154099
 20
327.627406
 30
-2043.0
 70
    64
  0
VERTEX
  8
I-STAND
  5
B11
 10
2090.738341
 20
332.392902
 30
-2043.0
 70
    64
  0
VERTEX
  8
I-STAND
  5
B12
 10
2099.192853
 20
335.351263
 30
-2043.0
 70
    64
  0
VERTEX
  8
I-STAND
  5
B13
 10
2108.093691
 20
336.354147
 30
-2043.0
 70
    64
  0
VERTEX
  8
I-STAND
  5
B14
 10
2116.994528
 20
335.351263
 30
-2043.0
 70
    64
  0
VERTEX
  8
I-STAND
  5
B15
 10
2125.44904
 20
332.392902
 30
-2043.0
 70
    64
  0
VERTEX
  8
I-STAND
  5
B16
 10
2133.033283
 20
327.627406
 30
-2043.0
 70
    64
  0
VERTEX
  8
I-STAND
  5
B17
 10
2139.36695
 20
321.293739
 30
-2043.0
 70
    64
  0
VERTEX
  8
I-STAND
  5
B18
 10
2144.132445
 20
313.709496
 30
-2043.0
 70
    64
  0
VERTEX
  8
I-STAND
  5
B19
 10
2147.090807
 20
305.254984
 30
-2043.0
 70
    64
  0
VERTEX
  8
I-STAND
  5
B1A
 10
2148.093691
 20
296.354147
 30
-2043.0
 70
    64
  0
SEQEND
  8
I-STAND
  5
B1B
  0
ARC
  8
I-STAND
  5
B1C
 10
2108.093691
 20
296.354147
 30
-2050.0
 40
40.0
 50
180.0
 51
0.0
  0
ARC
  8
I-STAND
  5
B1D
 10
2108.093691
 20
296.354147
 30
-2043.0
 40
40.0
 50
180.0
 51
0.0
  0
POLYLINE
  8
I-STAND
  5
B1E
 66
     1
 10
0.0
 20
0.0
 30
0.0
 70
    16
 71
     2
 72
    15
  0
VERTEX
  8
I-STAND
  5
B1F
 10
2068.093691
 20
296.354147
 30
-2043.0
 70
    64
  0
VERTEX
  8
I-STAND
  5
B20
 10
2069.096574
 20
305.254984
 30
-2043.0
 70
    64
  0
VERTEX
  8
I-STAND
  5
B21
 10
2072.054936
 20
313.709496
 30
-2043.0
 70
    64
  0
VERTEX
  8
I-STAND
  5
B22
 10
2076.820431
 20
321.293739
 30
-2043.0
 70
    64
  0
VERTEX
  8
I-STAND
  5
B23
 10
2083.154099
 20
327.627406
 30
-2043.0
 70
    64
  0
VERTEX
  8
I-STAND
  5
B24
 10
2090.738341
 20
332.392902
 30
-2043.0
 70
    64
  0
VERTEX
  8
I-STAND
  5
B25
 10
2099.192853
 20
335.351263
 30
-2043.0
 70
    64
  0
VERTEX
  8
I-STAND
  5
B26
 10
2108.093691
 20
336.354147
 30
-2043.0
 70
    64
  0
VERTEX
  8
I-STAND
  5
B27
 10
2116.994528
 20
335.351263
 30
-2043.0
 70
    64
  0
VERTEX
  8
I-STAND
  5
B28
 10
2125.44904
 20
332.392902
 30
-2043.0
 70
    64
  0
VERTEX
  8
I-STAND
  5
B29
 10
2133.033283
 20
327.627406
 30
-2043.0
 70
    64
  0
VERTEX
  8
I-STAND
  5
B2A
 10
2139.36695
 20
321.293739
 30
-2043.0
 70
    64
  0
VERTEX
  8
I-STAND
  5
B2B
 10
2144.132445
 20
313.709496
 30
-2043.0
 70
    64
  0
VERTEX
  8
I-STAND
  5
B2C
 10
2147.090807
 20
305.254984
 30
-2043.0
 70
    64
  0
VERTEX
  8
I-STAND
  5
B2D
 10
2148.093691
 20
296.354147
 30
-2043.0
 70
    64
  0
VERTEX
  8
I-STAND
  5
B2E
 10
2068.093691
 20
296.354147
 30
-2050.0
 70
    64
  0
VERTEX
  8
I-STAND
  5
B2F
 10
2069.096574
 20
305.254984
 30
-2050.0
 70
    64
  0
VERTEX
  8
I-STAND
  5
B30
 10
2072.054936
 20
313.709496
 30
-2050.0
 70
    64
  0
VERTEX
  8
I-STAND
  5
B31
 10
2076.820431
 20
321.293739
 30
-2050.0
 70
    64
  0
VERTEX
  8
I-STAND
  5
B32
 10
2083.154099
 20
327.627406
 30
-2050.0
 70
    64
  0
VERTEX
  8
I-STAND
  5
B33
 10
2090.738341
 20
332.392902
 30
-2050.0
 70
    64
  0
VERTEX
  8
I-STAND
  5
B34
 10
2099.192853
 20
335.351263
 30
-2050.0
 70
    64
  0
VERTEX
  8
I-STAND
  5
B35
 10
2108.093691
 20
336.354147
 30
-2050.0
 70
    64
  0
VERTEX
  8
I-STAND
  5
B36
 10
2116.994528
 20
335.351263
 30
-2050.0
 70
    64
  0
VERTEX
  8
I-STAND
  5
B37
 10
2125.44904
 20
332.392902
 30
-2050.0
 70
    64
  0
VERTEX
  8
I-STAND
  5
B38
 10
2133.033283
 20
327.627406
 30
-2050.0
 70
    64
  0
VERTEX
  8
I-STAND
  5
B39
 10
2139.36695
 20
321.293739
 30
-2050.0
 70
    64
  0
VERTEX
  8
I-STAND
  5
B3A
 10
2144.132445
 20
313.709496
 30
-2050.0
 70
    64
  0
VERTEX
  8
I-STAND
  5
B3B
 10
2147.090807
 20
305.254984
 30
-2050.0
 70
    64
  0
VERTEX
  8
I-STAND
  5
B3C
 10
2148.093691
 20
296.354147
 30
-2050.0
 70
    64
  0
SEQEND
  8
I-STAND
  5
B3D
  0
ARC
  8
I-STAND
  5
B3E
 10
2108.093691
 20
296.354147
 30
-2050.0
 40
40.0
 50
0.0
 51
180.0
  0
ARC
  8
I-STAND
  5
B3F
 10
2108.093691
 20
296.354147
 30
-2043.0
 40
40.0
 50
0.0
 51
180.0
  0
LINE
  8
I-STAND
  5
B40
 10
2068.093691
 20
296.354147
 30
-2043.0
 11
2148.093691
 21
296.354147
 31
-2043.0
  0
LINE
  8
I-STAND
  5
B41
 10
2123.093691
 20
308.854147
 30
-1893.0
 11
2093.093691
 21
308.854147
 31
-1893.0
  0
LINE
  8
I-STAND
  5
B42
 10
2093.093691
 20
283.854147
 30
-1893.0
 11
2123.093691
 21
283.854147
 31
-1893.0
  0
LINE
  8
I-STAND
  5
B43
 10
2093.093691
 20
308.854147
 30
-1893.0
 11
2093.093691
 21
283.854147
 31
-1893.0
  0
LINE
  8
I-STAND
  5
B44
 10
2123.093691
 20
283.854147
 30
-1893.0
 11
2123.093691
 21
308.854147
 31
-1893.0
  0
POLYLINE
  8
I-STAND
  5
B45
 66
     1
 10
0.0
 20
0.0
 30
0.0
 70
    16
 71
     2
 72
    15
  0
VERTEX
  8
I-STAND
  5
B46
 10
2068.093691
 20
671.354147
 30
-2043.0
 70
    64
  0
VERTEX
  8
I-STAND
  5
B47
 10
2069.096574
 20
662.45331
 30
-2043.0
 70
    64
  0
VERTEX
  8
I-STAND
  5
B48
 10
2072.054936
 20
653.998797
 30
-2043.0
 70
    64
  0
VERTEX
  8
I-STAND
  5
B49
 10
2076.820431
 20
646.414555
 30
-2043.0
 70
    64
  0
VERTEX
  8
I-STAND
  5
B4A
 10
2083.154099
 20
640.080888
 30
-2043.0
 70
    64
  0
VERTEX
  8
I-STAND
  5
B4B
 10
2090.738341
 20
635.315392
 30
-2043.0
 70
    64
  0
VERTEX
  8
I-STAND
  5
B4C
 10
2099.192853
 20
632.35703
 30
-2043.0
 70
    64
  0
VERTEX
  8
I-STAND
  5
B4D
 10
2108.093691
 20
631.354147
 30
-2043.0
 70
    64
  0
VERTEX
  8
I-STAND
  5
B4E
 10
2116.994528
 20
632.35703
 30
-2043.0
 70
    64
  0
VERTEX
  8
I-STAND
  5
B4F
 10
2125.44904
 20
635.315392
 30
-2043.0
 70
    64
  0
VERTEX
  8
I-STAND
  5
B50
 10
2133.033283
 20
640.080888
 30
-2043.0
 70
    64
  0
VERTEX
  8
I-STAND
  5
B51
 10
2139.36695
 20
646.414555
 30
-2043.0
 70
    64
  0
VERTEX
  8
I-STAND
  5
B52
 10
2144.132445
 20
653.998797
 30
-2043.0
 70
    64
  0
VERTEX
  8
I-STAND
  5
B53
 10
2147.090807
 20
662.45331
 30
-2043.0
 70
    64
  0
VERTEX
  8
I-STAND
  5
B54
 10
2148.093691
 20
671.354147
 30
-2043.0
 70
    64
  0
VERTEX
  8
I-STAND
  5
B55
 10
2068.093691
 20
671.354147
 30
-2043.0
 70
    64
  0
VERTEX
  8
I-STAND
  5
B56
 10
2069.096574
 20
680.254984
 30
-2043.0
 70
    64
  0
VERTEX
  8
I-STAND
  5
B57
 10
2072.054936
 20
688.709496
 30
-2043.0
 70
    64
  0
VERTEX
  8
I-STAND
  5
B58
 10
2076.820431
 20
696.293739
 30
-2043.0
 70
    64
  0
VERTEX
  8
I-STAND
  5
B59
 10
2083.154099
 20
702.627406
 30
-2043.0
 70
    64
  0
VERTEX
  8
I-STAND
  5
B5A
 10
2090.738341
 20
707.392902
 30
-2043.0
 70
    64
  0
VERTEX
  8
I-STAND
  5
B5B
 10
2099.192853
 20
710.351263
 30
-2043.0
 70
    64
  0
VERTEX
  8
I-STAND
  5
B5C
 10
2108.093691
 20
711.354147
 30
-2043.0
 70
    64
  0
VERTEX
  8
I-STAND
  5
B5D
 10
2116.994528
 20
710.351263
 30
-2043.0
 70
    64
  0
VERTEX
  8
I-STAND
  5
B5E
 10
2125.44904
 20
707.392902
 30
-2043.0
 70
    64
  0
VERTEX
  8
I-STAND
  5
B5F
 10
2133.033283
 20
702.627406
 30
-2043.0
 70
    64
  0
VERTEX
  8
I-STAND
  5
B60
 10
2139.36695
 20
696.293739
 30
-2043.0
 70
    64
  0
VERTEX
  8
I-STAND
  5
B61
 10
2144.132445
 20
688.709496
 30
-2043.0
 70
    64
  0
VERTEX
  8
I-STAND
  5
B62
 10
2147.090807
 20
680.254984
 30
-2043.0
 70
    64
  0
VERTEX
  8
I-STAND
  5
B63
 10
2148.093691
 20
671.354147
 30
-2043.0
 70
    64
  0
SEQEND
  8
I-STAND
  5
B64
  0
POLYLINE
  8
I-STAND
  5
B65
 66
     1
 10
0.0
 20
0.0
 30
0.0
 70
    16
 71
     2
 72
    15
  0
VERTEX
  8
I-STAND
  5
B66
 10
2068.093691
 20
671.354147
 30
-2043.0
 70
    64
  0
VERTEX
  8
I-STAND
  5
B67
 10
2069.096574
 20
662.45331
 30
-2043.0
 70
    64
  0
VERTEX
  8
I-STAND
  5
B68
 10
2072.054936
 20
653.998797
 30
-2043.0
 70
    64
  0
VERTEX
  8
I-STAND
  5
B69
 10
2076.820431
 20
646.414555
 30
-2043.0
 70
    64
  0
VERTEX
  8
I-STAND
  5
B6A
 10
2083.154099
 20
640.080888
 30
-2043.0
 70
    64
  0
VERTEX
  8
I-STAND
  5
B6B
 10
2090.738341
 20
635.315392
 30
-2043.0
 70
    64
  0
VERTEX
  8
I-STAND
  5
B6C
 10
2099.192853
 20
632.35703
 30
-2043.0
 70
    64
  0
VERTEX
  8
I-STAND
  5
B6D
 10
2108.093691
 20
631.354147
 30
-2043.0
 70
    64
  0
VERTEX
  8
I-STAND
  5
B6E
 10
2116.994528
 20
632.35703
 30
-2043.0
 70
    64
  0
VERTEX
  8
I-STAND
  5
B6F
 10
2125.44904
 20
635.315392
 30
-2043.0
 70
    64
  0
VERTEX
  8
I-STAND
  5
B70
 10
2133.033283
 20
640.080888
 30
-2043.0
 70
    64
  0
VERTEX
  8
I-STAND
  5
B71
 10
2139.36695
 20
646.414555
 30
-2043.0
 70
    64
  0
VERTEX
  8
I-STAND
  5
B72
 10
2144.132445
 20
653.998797
 30
-2043.0
 70
    64
  0
VERTEX
  8
I-STAND
  5
B73
 10
2147.090807
 20
662.45331
 30
-2043.0
 70
    64
  0
VERTEX
  8
I-STAND
  5
B74
 10
2148.093691
 20
671.354147
 30
-2043.0
 70
    64
  0
VERTEX
  8
I-STAND
  5
B75
 10
2068.093691
 20
671.354147
 30
-2050.0
 70
    64
  0
VERTEX
  8
I-STAND
  5
B76
 10
2069.096574
 20
662.45331
 30
-2050.0
 70
    64
  0
VERTEX
  8
I-STAND
  5
B77
 10
2072.054936
 20
653.998797
 30
-2050.0
 70
    64
  0
VERTEX
  8
I-STAND
  5
B78
 10
2076.820431
 20
646.414555
 30
-2050.0
 70
    64
  0
VERTEX
  8
I-STAND
  5
B79
 10
2083.154099
 20
640.080888
 30
-2050.0
 70
    64
  0
VERTEX
  8
I-STAND
  5
B7A
 10
2090.738341
 20
635.315392
 30
-2050.0
 70
    64
  0
VERTEX
  8
I-STAND
  5
B7B
 10
2099.192853
 20
632.35703
 30
-2050.0
 70
    64
  0
VERTEX
  8
I-STAND
  5
B7C
 10
2108.093691
 20
631.354147
 30
-2050.0
 70
    64
  0
VERTEX
  8
I-STAND
  5
B7D
 10
2116.994528
 20
632.35703
 30
-2050.0
 70
    64
  0
VERTEX
  8
I-STAND
  5
B7E
 10
2125.44904
 20
635.315392
 30
-2050.0
 70
    64
  0
VERTEX
  8
I-STAND
  5
B7F
 10
2133.033283
 20
640.080888
 30
-2050.0
 70
    64
  0
VERTEX
  8
I-STAND
  5
B80
 10
2139.36695
 20
646.414555
 30
-2050.0
 70
    64
  0
VERTEX
  8
I-STAND
  5
B81
 10
2144.132445
 20
653.998797
 30
-2050.0
 70
    64
  0
VERTEX
  8
I-STAND
  5
B82
 10
2147.090807
 20
662.45331
 30
-2050.0
 70
    64
  0
VERTEX
  8
I-STAND
  5
B83
 10
2148.093691
 20
671.354147
 30
-2050.0
 70
    64
  0
SEQEND
  8
I-STAND
  5
B84
  0
ARC
  8
I-STAND
  5
B85
 10
2108.093691
 20
671.354147
 30
-2043.0
 40
40.0
 50
180.0
 51
0.0
  0
ARC
  8
I-STAND
  5
B86
 10
2108.093691
 20
671.354147
 30
-2050.0
 40
40.0
 50
180.0
 51
0.0
  0
3DFACE
  8
I-STAND
  5
B87
 10
2123.093691
 20
683.854147
 30
-1893.0
 11
2123.093691
 21
683.854147
 31
-2043.0
 12
2093.093691
 22
683.854147
 32
-2043.0
 13
2093.093691
 23
683.854147
 33
-1893.0
  0
LINE
  8
I-STAND
  5
B88
 10
2093.093691
 20
658.854147
 30
-1893.0
 11
2093.093691
 21
658.854147
 31
-2043.0
  0
LINE
  8
I-STAND
  5
B89
 10
2093.093691
 20
683.854147
 30
-1893.0
 11
2093.093691
 21
683.854147
 31
-2043.0
  0
LINE
  8
I-STAND
  5
B8A
 10
2123.093691
 20
658.854147
 30
-1893.0
 11
2123.093691
 21
658.854147
 31
-2043.0
  0
LINE
  8
I-STAND
  5
B8B
 10
2123.093691
 20
683.854147
 30
-1893.0
 11
2123.093691
 21
683.854147
 31
-2043.0
  0
3DFACE
  8
I-STAND
  5
B8C
 10
2093.093691
 20
683.854147
 30
-1893.0
 11
2093.093691
 21
658.854147
 31
-1893.0
 12
2093.093691
 22
658.854147
 32
-2043.0
 13
2093.093691
 23
683.854147
 33
-2043.0
  0
3DFACE
  8
I-STAND
  5
B8D
 10
2093.093691
 20
658.854147
 30
-1893.0
 11
2123.093691
 21
658.854147
 31
-1893.0
 12
2123.093691
 22
658.854147
 32
-2043.0
 13
2093.093691
 23
658.854147
 33
-2043.0
  0
3DFACE
  8
I-STAND
  5
B8E
 10
2123.093691
 20
683.854147
 30
-1893.0
 11
2123.093691
 21
658.854147
 31
-1893.0
 12
2123.093691
 22
658.854147
 32
-2043.0
 13
2123.093691
 23
683.854147
 33
-2043.0
  0
POLYLINE
  8
I-STAND
  5
B8F
 66
     1
 10
0.0
 20
0.0
 30
0.0
 70
    16
 71
     2
 72
    15
  0
VERTEX
  8
I-STAND
  5
B90
 10
2068.093691
 20
671.354147
 30
-2043.0
 70
    64
  0
VERTEX
  8
I-STAND
  5
B91
 10
2069.096574
 20
680.254984
 30
-2043.0
 70
    64
  0
VERTEX
  8
I-STAND
  5
B92
 10
2072.054936
 20
688.709496
 30
-2043.0
 70
    64
  0
VERTEX
  8
I-STAND
  5
B93
 10
2076.820431
 20
696.293739
 30
-2043.0
 70
    64
  0
VERTEX
  8
I-STAND
  5
B94
 10
2083.154099
 20
702.627406
 30
-2043.0
 70
    64
  0
VERTEX
  8
I-STAND
  5
B95
 10
2090.738341
 20
707.392902
 30
-2043.0
 70
    64
  0
VERTEX
  8
I-STAND
  5
B96
 10
2099.192853
 20
710.351263
 30
-2043.0
 70
    64
  0
VERTEX
  8
I-STAND
  5
B97
 10
2108.093691
 20
711.354147
 30
-2043.0
 70
    64
  0
VERTEX
  8
I-STAND
  5
B98
 10
2116.994528
 20
710.351263
 30
-2043.0
 70
    64
  0
VERTEX
  8
I-STAND
  5
B99
 10
2125.44904
 20
707.392902
 30
-2043.0
 70
    64
  0
VERTEX
  8
I-STAND
  5
B9A
 10
2133.033283
 20
702.627406
 30
-2043.0
 70
    64
  0
VERTEX
  8
I-STAND
  5
B9B
 10
2139.36695
 20
696.293739
 30
-2043.0
 70
    64
  0
VERTEX
  8
I-STAND
  5
B9C
 10
2144.132445
 20
688.709496
 30
-2043.0
 70
    64
  0
VERTEX
  8
I-STAND
  5
B9D
 10
2147.090807
 20
680.254984
 30
-2043.0
 70
    64
  0
VERTEX
  8
I-STAND
  5
B9E
 10
2148.093691
 20
671.354147
 30
-2043.0
 70
    64
  0
VERTEX
  8
I-STAND
  5
B9F
 10
2068.093691
 20
671.354147
 30
-2050.0
 70
    64
  0
VERTEX
  8
I-STAND
  5
BA0
 10
2069.096574
 20
680.254984
 30
-2050.0
 70
    64
  0
VERTEX
  8
I-STAND
  5
BA1
 10
2072.054936
 20
688.709496
 30
-2050.0
 70
    64
  0
VERTEX
  8
I-STAND
  5
BA2
 10
2076.820431
 20
696.293739
 30
-2050.0
 70
    64
  0
VERTEX
  8
I-STAND
  5
BA3
 10
2083.154099
 20
702.627406
 30
-2050.0
 70
    64
  0
VERTEX
  8
I-STAND
  5
BA4
 10
2090.738341
 20
707.392902
 30
-2050.0
 70
    64
  0
VERTEX
  8
I-STAND
  5
BA5
 10
2099.192853
 20
710.351263
 30
-2050.0
 70
    64
  0
VERTEX
  8
I-STAND
  5
BA6
 10
2108.093691
 20
711.354147
 30
-2050.0
 70
    64
  0
VERTEX
  8
I-STAND
  5
BA7
 10
2116.994528
 20
710.351263
 30
-2050.0
 70
    64
  0
VERTEX
  8
I-STAND
  5
BA8
 10
2125.44904
 20
707.392902
 30
-2050.0
 70
    64
  0
VERTEX
  8
I-STAND
  5
BA9
 10
2133.033283
 20
702.627406
 30
-2050.0
 70
    64
  0
VERTEX
  8
I-STAND
  5
BAA
 10
2139.36695
 20
696.293739
 30
-2050.0
 70
    64
  0
VERTEX
  8
I-STAND
  5
BAB
 10
2144.132445
 20
688.709496
 30
-2050.0
 70
    64
  0
VERTEX
  8
I-STAND
  5
BAC
 10
2147.090807
 20
680.254984
 30
-2050.0
 70
    64
  0
VERTEX
  8
I-STAND
  5
BAD
 10
2148.093691
 20
671.354147
 30
-2050.0
 70
    64
  0
SEQEND
  8
I-STAND
  5
BAE
  0
LINE
  8
I-STAND
  5
BAF
 10
2068.093691
 20
671.354147
 30
-2043.0
 11
2148.093691
 21
671.354147
 31
-2043.0
  0
ARC
  8
I-STAND
  5
BB0
 10
2108.093691
 20
671.354147
 30
-2043.0
 40
40.0
 50
0.0
 51
180.0
  0
ARC
  8
I-STAND
  5
BB1
 10
2108.093691
 20
671.354147
 30
-2050.0
 40
40.0
 50
0.0
 51
180.0
  0
LINE
  8
I-STAND
  5
BB2
 10
2093.093691
 20
658.854147
 30
-1893.0
 11
2123.093691
 21
658.854147
 31
-1893.0
  0
LINE
  8
I-STAND
  5
BB3
 10
2123.093691
 20
683.854147
 30
-1893.0
 11
2093.093691
 21
683.854147
 31
-1893.0
  0
LINE
  8
I-STAND
  5
BB4
 10
2093.093691
 20
683.854147
 30
-1893.0
 11
2093.093691
 21
658.854147
 31
-1893.0
  0
LINE
  8
I-STAND
  5
BB5
 10
2123.093691
 20
658.854147
 30
-1893.0
 11
2123.093691
 21
683.854147
 31
-1893.0
  0
LINE
  8
I-UNIT
  5
BB7
 10
853.093691
 20
683.854147
 30
-1169.666667
 11
1693.093691
 21
683.854147
 31
-1846.333333
  0
LINE
  8
I-UNIT
  5
BB8
 10
853.093691
 20
683.854147
 30
-1846.333333
 11
1693.093691
 21
683.854147
 31
-1169.666667
  0
LINE
  8
I-UNIT
  5
BBB
 10
853.093691
 20
683.854147
 30
-1163.666667
 11
1693.093691
 21
683.854147
 31
-1840.333333
  0
LINE
  8
I-UNIT
  5
BBC
 10
853.093691
 20
683.854147
 30
-1840.333333
 11
1693.093691
 21
683.854147
 31
-1163.666667
  0
3DFACE
  8
I-UNIT
  5
BBD
 10
853.093691
 20
683.854147
 30
-1169.666667
 11
1693.093691
 21
683.854147
 31
-1846.333333
 12
1693.093691
 22
683.854147
 32
-1840.333333
 13
853.093691
 23
683.854147
 33
-1163.666667
  0
3DFACE
  8
I-UNIT
  5
BBE
 10
1693.093691
 20
683.854147
 30
-1163.666667
 11
1693.093691
 21
683.854147
 31
-1169.666667
 12
853.093691
 22
683.854147
 32
-1846.333333
 13
853.093691
 23
683.854147
 33
-1840.333333
  0
ENDSEC
  0
EOF
